River - Guitar Tabs

(/) Slide Up  (\) Slide Down  (h) Hammer On  (p) Pull Off  (b) Bend (r) Release (v) Vibrato (x) Muted

Tabs for Song : 
capo at 2nd fret

BPM : 200

E|--------3--2--3--2--3-----3--------------3--2--3--2--3-----3--------------3--2--3--------2--3-----------3--
B|-----0--------0--------3-----1--------0--------0--------3-----1--------0-----------------------------3-----
G|--0--------0-----0-----0-----0-----0--------0-----0-----0-----0-----0--------0--------0-----------0--------
D|--------2--------------------------------2--------------------------------2--------2-----------------------
A|--------------------3--------------------------------3-----------------------------------------3-----------
E|-----------------------------------------------------------------------------------------------------------

E|--------------------------------------------------------------------------------------------------
B|--------1-----------1--------3--0--------------------------0---------0h1--3---------1p0-----------
G|-----0---------3/4--------0--------2--0-----0---------0h2--------0--------------0--------2--2-----
D|-----------------------0-----------0-----4--------2-----------2--------------0-----------0-----4--
A|--3--------------------------------------------2-----------3--------------------------------------
E|---------------3----------------------------0-----------------------------3-----------------------

here-> *

E|-----3--2--3--------2--3-----------3--------------------------------7--5---5h-7p5-----3--2--3--------
B|--------------------------------3-----------1-----------1--------3-----------------------------------
G|--------0--------0-----------0-----------0---------3/4--------0------------7----------------------0--
D|-----2--------2--------------------------------------------0-----------0-----------------------2-----
A|--------------------------3-----------3--------------------------------------------------------------
E|---------------------------------------------------3----------------------------------------0--------

E|---------------------------------------------------3/-5/-3p2--3---------------3/-5/-3p2-----3-----------
B|--------0---------0h1--3---------1p0--------------------------------3-----------------------------3-----
G|---0h2--------0--------------0--------2--------2-----------------------0-----------------------0-----0--
D|-----------2--------------0-----------0-----0--------------------2--------------------------------------
A|--------3-----------------------------------------------------------------------------------3-----------
E|-----------------------3--------------------------------------0-----------------------------------------

E|---3/-5/-3p2---3/5---7/-8/10----7------------------3/-5/-3p2--3---------------3/-5/-3p2-----3-----------
B|-----------------------------------10-8--7--------------------------3-----------------------------3-----
G|--------------------------------------------7--------------------------0-----------------------0-----0--
D|-----------------------------------------0-----0-----------------2--------------------------------------
A|--------------------------------------------------------------------------------------------3-----------
E|---------------3/---------------------------------------------0-----------------------------------------

E|---3/-5/-3p2---3/5---7/-8/10----7-----------------3---3/-5/-3p2-----3-----------3---3/-5/-3p2--3-----------
B|-----------------------------------10-8--7--------------------------------3--------------------------3-----
G|--------------------------------------------7--------------------------------0--------------------0-----0--
D|-----------------------------------------0-----0-----------------------2-----------------------------------
A|-----------------------------------------------------------------------------------------------3-----------
E|---------------3/---------------------------------------------------0--------------------------------------

E|--3---3/-5/-3p2---3/5---7/-8/10----7-----------------3---3/-5/-3p2-----3-----------3---3/-5/-3p2--3-----------
B|--------------------------------------10-8--7--------------------------------3--------------------------3-----
G|-----------------------------------------------7--------------------------------0--------------------0-----0--
D|--------------------------------------------0-----0-----------------------2-----------------------------------
A|--------------------------------------------------------------------------------------------------3-----------
E|------------------3/---------------------------------------------------0--------------------------------------

E|--3---3/-5/-3p2---3/5---7/-8/10----7--------------------------
B|--------------------------------------10-8--7-----------------
G|-----------------------------------------------7--------------
D|--------------------------------------------0-----0---7/4-----
A|--------------------------------------------------------------
E|------------------3/------------------------------------------

play everything from * again

E|--------------3--2--2--------0--------0--------------------0--------------------------------------------
B|-----------0--------------0-----3--3-----1--------------3-----1--------------1--0--0--0-----------0--0--
G|--------0--------------0--------------------0-----0-----------0-----0-----0--2-----------2--2--2--------
D|-----4-----------------------------------------2-----2-----------2-----2-----0--------------------------
A|-----------------------------------3--------------------------0-----------------------------------------
E|--0-----------------0--------------------------------------------------------------------------3--------

Song lyrics here 
E|--
B|--
G|--
D|--
A|--
E|--

Song lyrics here 
E|--
B|--
G|--
D|--
A|--
E|--

Use manual mode to free up cursor. Paste any tab in acousterr tab maker and we'll play it !!!
tabs and chords, guitar tabs, music transcription, music technology, deep learning, music information retrieval, transcribe into tabs & chords, chordify, music renditions, songsterr, reverbnation, tabulature, bollywood chords, ultimate guitar, yousician, guitar lessons, acoustic guitar, electric guitar, guitar tuner, 911 tabs