Guitar Tabs for Rivellon - Divinity Original Sin 2 Ost

(/) Slide Up  (\) Slide Down  (h) Hammer On  (p) Pull Off  (b) Bend (r) Release (v) Vibrato (x) Muted

Tabs for Song : 

Song lyrics here
E|-----------7-----------------------8-----------------------7-----------------------5--------------
B|--------8-----8-----------------8-----8-----------------8-----8-----------------7-----7-----------
G|-----9-----------9-----9-----9-----------9-----9-----7-----------7-----7-----7-----------7-----7--
D|--------------------------------------------------5-----------------5-----------------------------
A|--7-----------------7-----------------------------------------------------5-----------------5-----
E|--------------------------8-----------------8-----------------------------------------------------

E|-----------7-----------------------8-----------------------7-----------------------5--------------
B|--------8-----8-----------------8-----8-----------------8-----8-----------------7-----7-----------
G|-----9-----------9-----9-----9-----------9-----9-----7-----------7-----7-----7-----------7-----7--
D|--------------------------------------------------5-----------------5-----------------------------
A|--7-----------------7-----------------------------------------------------5-----------------5-----
E|--------------------------8-----------------8-----------------------------------------------------

E|-----------7-----------------------8-----------------------7-----------------------5--------------
B|--------8-----8-----------------8-----8-----------------8-----8-----------------7-----7-----------
G|-----9-----------9-----9-----9-----------9-----9-----7-----------7-----7-----7-----------7-----7--
D|--------------------------------------------------5-----------------5-----------------------------
A|--7-----------------7-----------------------------------------------------5-----------------5-----
E|--------------------------8-----------------8-----------------------------------------------------

Song lyrics here
E|--
B|--
G|--
D|--
A|--
E|--

Now supports capo and sound effects for vibrato/pull-off/hammer/bends/mutes etc !!! Checkout help section
tabs and chords, guitar tabs, music transcription, music technology, deep learning, music information retrieval, transcribe into tabs & chords, chordify, music renditions, songsterr, reverbnation, tabulature, bollywood chords, ultimate guitar, yousician, guitar lessons, acoustic guitar, electric guitar, guitar tuner, 911 tabs