Guitar Tabs for Ringmaster

(/) Slide Up  (\) Slide Down  (h) Hammer On  (p) Pull Off  (b) Bend (r) Release (v) Vibrato (x) Muted

Tabs for Song : 
BPM : 110

Intro:
D|--------------
A|--------------
F|--------------
C|--7--5--8--7--
G|--7--5--8--7--
C|--7--5--8--7--

D|--------------------------------------------------------------------------------------------------
A|--------------------------------------------------------------------------------------------------
F|--------------------------------------------------------------------------------------------------
C|--------------------------------------------------------------------------------------5--0--------
G|--------------5-----------------------5--0--------------------5-----------------------------3--5--
C|--0-----0--0-----3--------0-----0--0--------3--5--0-----0--0-----3--------0-----0--0--------------

D|--------------------------------------------------------------------------------------------------
A|--------------------------------------------------------------------------------------------------
F|--------------------------------------------------------------------------------------------------
C|--------------------------------------------------6--3--0--6--3--0--6--3--0--6--3--0--6--1--------
G|--------------5-----------------------------------6--3--0--6--3--0--6--3--0--6--3--0--6--1--------
C|--0-----0--0-----3--------0-----0--0--6--3--0-----6--3--0--6--3--0--6--3--0--6--3--0--6--1--------

Verse:
D|-----------------------------------------------------------------------------------------------
A|-----------------------------------------------------------------------------------------------
F|-----------------------------------------------------------------------------------------------
C|-----------------------------------------------------------------------------------------------
G|--------------------------------------8--6--5-----------------------------------------8--6--5--
C|--0-----0-----6--5--0--0--0--6--5--0--------------0-----0-----6--5--0--0--0--6--5--0-----------

D|--------------------------------------------------------------------------------------------------
A|--------------------------------------------------------------------------------------------------
F|--------------------------------------------------------------------------------------------------
C|-----------------------------------------------------6--5--0--3--0--0--6--5--0--3--0--0--0--5-----
G|-----------------------------------------8--6--5-----6--5--0--3--0--0--6--5--0--3--0--0--0--3-----
C|-----0-----0-----6--5--0--0--0--6--5--0--------------6--5--0--3--0--0--6--5--0--3--0--0--0--------


Bridge:
D|-----------------------------------------------------------------------------------------------
A|-----------------------------------------------------------------------------------------------
F|-----------------------------------------------------------------------------------------------
C|--------------------------------------------------7-----3-----8-----7-----3-----5-----2--------
G|--6--5--3--0--3-----3-----6--5--3--0--3-----3-----7-----3-----8-----7-----3-----5-----2--------
C|--6--5--3--0--3-----3-----6--5--3--0--3-----3-----7-----3-----8-----7-----3-----5-----2--------


Chous:
D|-----------------------------------------------------------------------------------------------
A|-----------------------------------------------------------------------------------------------
F|-----------------------------------------------------------------------------------------------
C|--0--------0-----0-----0-----0-----0--------------5--------5-----5-----5-----3-----------------
G|--0--------0-----0-----0-----0-----0--------------3--------3-----3-----3-----3--------------1--
C|--0--------0-----0-----0-----0-----0-----5--3--0--------------------------0--3--3--0--2--3-----

D|-----------------------------------------------------------------------------------------------
A|-----------------------------------------------------------------------------------------------
F|-----------------------------------------------------------------------------------------------
C|--0--------0-----0-----0-----0-----0--------------5--------5-----5-----5------3/6-----6-----5--
G|--0--------0-----0-----0-----0-----0--------------3--------3-----3-----3------3/6-----6-----5--
C|--0--------0-----0-----0-----0-----0-----5--3--0--------------------------0---3/6-----6-----5--

D|-----------------------------------------------------------------------------------------------
A|-----------------------------------------------------------------------------------------------
F|-----------------------------------------------------------------------------------------------
C|--0--------------------------------------------------------------------------------------------
G|--0--------------------------------------------------------------------------------------------
C|--0-----------8--7--5--0--7--5--3--0-----------------------------------------------------------


Breakdown:
D|-----------------------------------------------------------------------------------------------
A|-----------------------------------------------------------------------------------------------
F|-----------------------------------------------------------------------------------------------
C|-----------------------------------------------------------------------------------------------
G|-----------------------------------------------------------------------------------------------
C|--0--0--0-----0--0--0-----0--0--0-----0--0--0-----0--0--0-----0--0--0-----8--7--5--0--3--5--3--

D|-----------------------------------------------------------------------------------------]------
A|-----------------------------------------------------------------------------------------------
F|-----------------------------------------------------------------------------------------------
C|-----------------------------------------------------------------------------------------------
G|--------------------------------------------------------------------------8--7--------5--------
C|--0--0--0-----0--0--0-----0--0--0-----0--0--0-----0--0--0-----0--0--0-----------8--7-----3-----

Paste any tab in acousterr's tab maker and we'll play it !!!
Now supports capo and sound effects for vibrato/pull-off/hammer/bends/mutes etc !!! Checkout help section




tabs and chords, guitar tabs, music transcription, music technology, deep learning, music information retrieval, transcribe into tabs & chords, chordify, music renditions, songsterr, reverbnation, tabulature, bollywood chords, ultimate guitar, yousician, guitar lessons, acoustic guitar, electric guitar, guitar tuner, 911 tabs