Guitar Tabs for Hammer/ Pulls

hammers and pulls;

1) hammer

E|--------------
B|--------------
G|--------------
D|--------------
A|---------5h7--
E|---5h7--------

2) pull

E|--------------
B|--------------
G|--------------
D|--------------
A|---------7p5--
E|---7p5--------

3) both

E|--------------------
B|--------------------
G|--------------------
D|------------0h-2p0--
A|---0h-2p0-----------
E|--------------------

4) both

E|-----------------
B|-----------------
G|-----------------
D|-----------------
A|---3h-5p-3p0-----
E|-----------------
tabs and chords, guitar tabs, music transcription, music technology, deep learning, music information retrieval, transcribe into tabs & chords, chordify, music renditions, songsterr, reverbnation, tabulature, bollywood chords, ultimate guitar, yousician, guitar lessons, acoustic guitar, electric guitar, guitar tuner, 911 tabs