Bass Tabs for Revista De Gimnasia Denver

(/) Slide Up  (\) Slide Down  (h) Hammer On  (p) Pull Off  (b) Bend (r) Release (v) Vibrato (x) Muted

Tabs for Song : 
BPM : 200

Song lyrics here 
G|-----------------------------------------------------------------------------------------------------------------------------------------------------------------------------------------------------------------
D|-----------------------------------------------------------------------------------------------------------------------------------------------------------------------------------------------------------------
A|-----------------------------7-----------7-----7--9-----9--9--7--9-----9--9--7--9--7-----------7--------------------------------------7-----------7-----7--9-----9--9--7--9-----9--9--7--9--7-----------7-----7--
E|--9-----9--7--9-----9--7--9-----9--7--9-----9-----------------------------------------9--7--9-----9--7--9-----9--7--9-----9--7--9--------9--7--9-----9-----------------------------------------9--7--9-----9-----



G|--------------------------------------------------------------------------------------------------------------------------------------------------------------------------------------------------------------------------
D|--7-----7-----7-----7-----------------------------------------------------------------------------------------------------------------------------------------------------------------------------------------------------
A|-----------------------7--8--9-----9-----9------9h11----9-----7--------------------------------------7---------7h9--7--------------------------------7--8--9-----9-----9------9h11-9--7-----------------------7--9--7--6--
E|--------------------------------------------------------------------9-----9-----9-----9-----7--8--9-----9--7-----------9--7-----5-----5-----5-----5--------------------------------------9--9--9--9--9--9--9--------------

G|-----------------------------------------------------------------------------------
D|-----------------------------------------------------------------------------------
A|--12-12----12-12-------9--9-----9--9--------------7------------------7h9--7--------
E|-----------------------------------------9--9--------9-----9--9--------------9--7--

G|-----------------------------------------------------------------------------------
D|-----------------------------------------------------------------------------------
A|--12-12----12-12----9--9-----9--9-----------------7------------------7h9--7--------
E|-----------------------------------------9--9--------9-----9--9--------------9--7--

G|-----------------------------------------------------------------------------------------------------------------------
D|-----------------------------------------------------------------------------------------------------------------------
A|--------------------------7--8--9-----9-----9------9h11-9--7---------------------------------------------7h9--7--------
E|--5-----5-----5-----5-----------------------------------------9-----9-----9-----9-----9-----9-----9-----------------9--

G|-----------------------------------------------------------------------------------------------------------------------------
D|-----------------------------------------------------------------------------------------------------------------------------
A|--------------------------7--8--9-----9-----9------9h11-9--7-----------------------------------------------------------------
E|--5-----5-----5-----5--------------------------------------------9--9-----9-----9-----9------9h11-12----12-12----12-12----12-

G|--------------------------------------------------------------------------------------------------------------------
D|-----7-----7-----7--7-----7--------------------------4--6--4--------------------------2--3--4-----4--2--4--2--------
A|--------------------------------------------------4-----------4-----4-----4-----4-----------------------------4--2--
E|--5-----5-----5--------5--------4-----4-----4-----------------------------------------------------------------------

G|--------------------------------------------------------------------------------------------------------------------
D|-----------------7--7-----7--------------------------4--6--4--------------------------2--3--4-----4--2--4--2--------
A|--------------------------------------------------4-----------4-----4-----4-----4-----------------------------4--2--
E|--5-----5-----5--------5--------4-----4-----4-----------------------------------------------------------------------

G|--------------------------------------------------------------------------------------------------------
D|--------------------------------------------------------------------------------------------------------
A|-----------------------------7-----------7-----7--9-----9--9--7--9-----9--9--7--9--7-----------7--------
E|--9-----9--7--9-----9--7--9-----9--7--9-----9-----------------------------------------9--7--9-----9--7--

G|-----------------------------------------------------------------------------------------------------9--------------
D|--------------------------------------------------------------------------------------------------------9-----------
A|-----------------------------7-----------7-----7--9-----9--9--7--9-----9--9--7-----9--9-----9--9-----------9--7-----
E|--9-----9--7--9-----9--7--9-----9--7--9-----9--------------------------------------------------------------------5--

G|--
D|--
A|--
E|--

G|--------------------------------------------------------------------------------------------------------------------------------------------------------------------------------------------------------------
D|--------------------------------------------------------------------------------------------------------------------------------------------------------------------------------------------------------------
A|--9--7--------------------7--8--9-----9-----9-----9--11-9--7-----------------------------7--9--7--------------------------7--8--9-----9-----9-----9--11-9--7-----------------------7-----7-----7-----7-----7--
E|--------9--7--5--5--5-----------------------------------------9--9-----9-----9-----9--------------9--7--5-----5-----5-----------------------------------------9-----9-----9-----9-----------------------------

G|--------------------------------------------------------------------------------------------------------------------------------------
D|--------------------------------------------------------------------6--7--8-----8-----8--------------------------------------------6--
A|--7--8--9--9--9-----------------------------------------------------------------------------9--8--6-----6--6-----4-----4-----4--------
E|-----------------------9-----9--9--------7--8--9-----9-----9--------------------------------------------------------------------------

G|--
D|--
A|--
E|--

Song lyrics here 
G|--
D|--
A|--
E|--

Use manual mode to free up cursor. Paste any tab in acousterr tab maker and we'll play it !!!
tabs and chords, guitar tabs, music transcription, music technology, deep learning, music information retrieval, transcribe into tabs & chords, chordify, music renditions, songsterr, reverbnation, tabulature, bollywood chords, ultimate guitar, yousician, guitar lessons, acoustic guitar, electric guitar, guitar tuner, 911 tabs