Guitar Tabs for Requiem Der Morgenrote (timing Is Wrong)

(/) Slide Up  (\) Slide Down  (h) Hammer On  (p) Pull Off  (b) Bend (r) Release (v) Vibrato (x) Muted

Tabs for Song : 
BPM : 171---



Song lyrics here 
E|--0-----8-----8--7-----3--5--3-----1--3-----0--1--3--5--8--7-----
B|-----------------------------------------------------------------
G|-----------------------------------------------------------------
D|-----------------------------------------------------------------
A|-----------------------------------------------------------------
E|-----------------------------------------------------------------

E|--1--0--------0-----0--8-----8--7-----3--5--7--8--3-----0--1--3--5--8--7--3--5--
B|-----------3--------------------------------------------------------------------
G|--------------------------------------------------------------------------------
D|--------------------------------------------------------------------------------
A|--------------------------------------------------------------------------------
E|--------------------------------------------------------------------------------

Song lyrics here 
E|-----------------1--0-----------------------------------------------------------------------------------x
B|--3--3--3--3--3--------1--------------------3--1--------------------------------------------------------
G|--------------------------2-----3--3--2--3--------2--------0-----0-----0--3--2--------------0-----0--2--
D|-----------------------------------------------------3--------------3-----------3--0-----3-----0--------
A|--------------------------------------------------------------------------------------------------------
E|--------------------------------------------------------------------------------------------------------

E|-----------------1--0--------------------------------------------------------------------------
B|--3--3--3--3--3--------1--------------------3--1--------------------------------------------1--
G|--------------------------2-----3--3--2--3--------2--------0--0-----0--3-----2--2--2--0--2-----
D|-----------------------------------------------------3-----------3-----------------------------
A|-----------------------------------------------------------------------------------------------
E|-----------------------------------------------------------------------------------------------

E|-----------------------------------0-----1-----3--1--0-----------------------------------------------
B|--3-----3--3--0--3-----3--2--2--3-----------------------3-----3--1-----1--3-----3--1-----------------
G|--------------------------------------------------------------------------------------0--0-----3--2--
D|-----------------------------------------------------------------------------------------------------
A|-----------------------------------------------------------------------------------------------------
E|-----------------------------------------------------------------------------------------------------

E|--------------------------------1--0-----0--0--0-----0-----------------0--------5-----3--3-----3--5--
B|-----1-----------------------3--------------------0--------3--3--2--3--------------------------------
G|--3-----3--2--0--------2-----------------------------------------------------2-----------------------
D|--------------------3--------------------------------------------------------------------------------
A|-----------------------------------------------------------------------------------------------------
E|-----------------------------------------------------------------------------------------------------

E|--3-----------0--1--3--5-----3-----3--1-----1--3--1--1-----1--0-----5--3--3-----3--5-----3--------0--1--
B|-----3-----3--------------------3-----------------------------------------------------------3--3--------
G|--------------------------------------------------------------------------------------------------------
D|--------------------------------------------------------------------------------------------------------
A|--------------------------------------------------------------------------------------------------------
E|--------------------------------------------------------------------------------------------------------

E|--3--5--3--0--------------6-----6--8--5-----6--3-----5--1-----6--6--8--5-----6--5-----3--1--
B|--------------3-----------------------------------------------------------------------------
G|--------------------------------------------------------------------------------------------
D|--------------------------------------------------------------------------------------------
A|--------------------------------------------------------------------------------------------
E|--------------------------------------------------------------------------------------------

Use manual mode to free up cursor. Paste any tab in acousterr tab maker and we'll play it !!!
tabs and chords, guitar tabs, music transcription, music technology, deep learning, music information retrieval, transcribe into tabs & chords, chordify, music renditions, songsterr, reverbnation, tabulature, bollywood chords, ultimate guitar, yousician, guitar lessons, acoustic guitar, electric guitar, guitar tuner, 911 tabs