Guitar Tabs for Remind Me-brad Paisley

(/) Slide Up  (\) Slide Down  (h) Hammer On  (p) Pull Off  (b) Bend (r) Release (v) Vibrato (x) Muted

Tabs for Song : 

Song lyrics here
E|-----8--6--5-----------------------------------------------------------------------------------------------------------
B|--------------6------------------------------------------------------6b8---6b8---6b8---6b-8r5--6-----5--4--------------
G|--5--------------5--------------------------------------------------------------------------------7---------7\5-----5--
D|--------------------7--5--3---2h3-----------------2-----3------5b7-----------------------------------------------7-----
A|-----------------------------------3v----3--5--5-----5-----5-----------------------------------------------------------
E|--------------------------------------5--------------------------------------------------------------------------------

E|--------------------------------------------------------------------------------------------------13b15-13b15-
B|--------------------------------------13----------10-------10-------10----------13----13----13-15-------------
G|---5\3--3--3--------10----------10/12----12-12b14----12b14----12b14-------12/14----------14-------------------
D|---5\3--3--3-----------------10-------------------------------------------------------------------------------
A|-----------------------12-13----------------------------------------------------------------------------------
E|--------------------------------------------------------------------------------------------------------------

E|--10----------10----------------------------------------------------------------------------------------------------
B|-----13-10-------13-10-------------------------------------------------15b16v---15-13-------------13----------------
G|-----------12----------13-12-10----10-------------------------------------------------16h15-13-------15b16-13----13-
D|--------------------------------12----12-10----10-------------------------------------------------------------15----
A|--------------------------------------------12----12\10-8-----------------------------------------------------------
E|-----------------------------------------------------------10-8v----------------------------------------------------

E|-----------------------------------------------------------------------
B|--11b13v------13h15----------------------------3-----------3---3\0--1v-
G|-----------------------13\12\10----2-----------3-----------3---3\0--2v-
D|--------------------------------------5--3---------5p3-----------------
A|--------------------------------------------5-----------5--------------
E|-----------------------------------------------------------------------


E|-----
B|-----
G|-----
D|-----
A|-----
E|-----


E|--
B|--
G|--
D|--
A|--
E|--

Song lyrics here
E|--
B|--
G|--
D|--
A|--
E|--

Paste any tab in acousterr's tab maker and we'll play it !!!
Now supports capo and sound effects for vibrato/pull-off/hammer/bends/mutes etc !!! Checkout help section
tabs and chords, guitar tabs, music transcription, music technology, deep learning, music information retrieval, transcribe into tabs & chords, chordify, music renditions, songsterr, reverbnation, tabulature, bollywood chords, ultimate guitar, yousician, guitar lessons, acoustic guitar, electric guitar, guitar tuner, 911 tabs