Regret - Full Metal Alchemist - Mandolin Tabs

(/) Slide Up  (\) Slide Down  (h) Hammer On  (p) Pull Off  (b) Bend (r) Release (v) Vibrato (x) Muted

Tabs for Song : 
BPM : 200

Song lyrics here 
E|--------------------------------------------------------------------------------------------------------------
A|-----0--------------------------------------------------------------0--------------------------3-----0-----0--
D|--0-----------5--3---2h3--5-----3--2--0-----0--2---0h-2p0--------0-----------5--3---2h3--5--------------5-----
G|-----------------------------------------5--------------------------------------------------------------------

E|-----1--0--------1------0h-1p0--------------------0-----1--0---1p0--------------1--0--------1---0h-1p0--------
A|--0--------5--------------------5--3-----3--0--3--------------------5--------0--------5-----------------5--3--
D|--------------------------------------------------------------------------------------------------------------
G|--------------------------------------------------------------------------------------------------------------

E|-----------0------0h1--0---1p0-----------------------------------------------------------------------
A|--3--0--3-----------------------5-----------0--------------------------------------------------------
D|-----------------------------------------0--------5--3---2h3--5-----3---2h3--2--0-----0--2---0h-2p0--
G|-----------------------------------------------------------------------------------5-----------------

E|-----------------------------------------------------------h
A|-----0-----------------------------------------------------
D|--0--------5--3---2h3--5-----3--2--0---------------0h-2p0--
G|--------------------------------------5-----2--5-----------

Song lyrics here 
E|--
A|--
D|--
G|--

Use manual mode to free up cursor. Paste any tab in acousterr tab maker and we'll play it !!!

About Pachtaoge : "Pachtaoge" (transl. You will regret) is sung by Arijit Singh . The song The song was released on 23 August 2019 by T-Series on YouTube . As of 10 May 2020, The video was directed by Arvindr Khaira and shot in Shimla in June 2019 . Vicky Kaushal, Nora Fatehi and Prabh Uppal playing the role of antagonist . It was released in 2019. It was released as part of album Jaani Ve. The genre is ballad. The track was release in 2019. Pachtaoge has a significant contribution from artist(s) Arijit Singh,Jaani.

About Arijit Singh - Arijit Singh is an Indian playback singer . He sings predominantly in Hindi and Bengali . He has also performed in various Singh was discovered by filmmaker Sanjay Leela Bhansali and Kumar Taurani . Singh received widespread recognition with the release of "Tum Hi Ho" and "Chahun Main Ya Naa" in 2013 . Arijit Singh was born on 25 April 1987 in Jiaganj, Murshidabad, West Bengal . He studied at Raja Bijay Singh High School and later at the University of Kalyani affiliate . Arijit Singh's music is influenced by genre(s) - filmi pop edm ghazal indian classical.

About Jaani (songwriter) - Jaani is an Indian songwriter and music composer associated with Punjabi and Hindi language songs . He is known for his work with music director B Praak on songs like Qismat, Mann Bh He started his career with a religious song, "Sant Sipahi", in 2012 . However, he gained fame after song "Soch", sung by Harrdy Sandhu and composed by B Praak . The music video of this song was directed by Arvindr Khaira . Since "Soch", B Praak, Jaani, Arvindr Khaira, and Harrdy Sandhu have worked as a team . His album Shayar with composer B Praak released in 2015, which includes tracks like "Taara" by Ammy Virk, "Ik Saal" by Jaani (songwriter) had an affiliation to band(s) - Jaani. Jaani (songwriter)'s music is influenced by genre(s) - soundtrack pop.

tabs and chords, guitar tabs, music transcription, music technology, deep learning, music information retrieval, transcribe into tabs & chords, chordify, music renditions, songsterr, reverbnation, tabulature, bollywood chords, ultimate guitar, yousician, guitar lessons, acoustic guitar, electric guitar, guitar tuner, 911 tabs