Guitar Tabs for Red Like Roes

Red Like Roes


E|--------------------2--0--------------------------2--0--------2-----------------------------0--2--------------
B|--3--2--3--2--3--2--------3--2--3--2--3--2--3--2--------3--2-----3--2--3--0--------0--2--3--------3--2--3-----
G|-----------------------------------------------------------------------------------------------------------2--
D|--------------------------------------------------------------------------------------------------------------
A|--------------------------------------------------------------------------------------------------------------
E|--------------------------------------------------------------------------------------------------------------

E|-----------------------------7-----10----9-----------7-----------------------------------7--9--
B|--7-----7-----7-----7--10----------------------10----------10----7-----7-----7-----7--10-------
G|-----9-----9-----9--------------------------------------------------------9-----9--------------
D|-----------------------------------------------------------------------------------------------
A|-----------------------------------------------------------------------------------------------
E|-----------------------------------------------------------------------------------------------

E|--10----10----12----10----10----12----12----1--0--1--3--1--0--------1--0--1--3--5-----
B|--------------------------------------------------------------3--------------------3--
G|-----------------------------------------------------------------2--------------------
D|--------------------------------------------------------------------------------------
A|--------------------------------------------------------------------------------------
E|--------------------------------------------------------------------------------------

tabs and chords, guitar tabs, music transcription, music technology, deep learning, music information retrieval, transcribe into tabs & chords, chordify, music renditions, songsterr, reverbnation, tabulature, bollywood chords, ultimate guitar, yousician, guitar lessons, acoustic guitar, electric guitar, guitar tuner, 911 tabs