Rayando El Sol - Mana - Guitar Tabs

Acompa├▒amiento
    
                                                                                                                                                                                                                                                                                                                                                                                                                                                                                                                                                                                                 
E|--3--3--3--3-----3--3--3-|
B|--3--3--3--3-----3--3--3-|
G|--0--0--0--0-----0--0--0-|
D|--0--0--0--0-----0--0--0-|
A|--2--2--2--2-----2--2--2-|
E|--3--3--3--3-----3--3--3-|

    
                                                                                                                                                                                                                                                                                                                                                                                                                                                                                                                                                                                                                                                                                                                                                                                                                                                                                                                                                                                                                                                                                                                                                                                              
E|--2--2--2--2-----2--2--2-|0--0--0--0-----0--0--0-|
B|--3--3--3--3-----3--3--3-|0--0--0--0-----0--0--0-|
G|--2--2--2--2-----2--2--2-|0--0--0--0-----0--0--0-|
D|--0--0--0--0-----0--0--0-|2--2--2--2-----2--2--2-|
A|--0--0--0--0-----0--0--0-|2--2--2--2-----2--2--2-|
E|--2--2--2--2-----2--2--2-|0--0--0--0-----0--0--0-|

    
                                                                                                                                                                                                                                                                                                                                                                                                                                                                                                                                                                                                                                                                                                                                                                                                                                                                                                                                                                                                                                                                                                                                                                                              
E|--0--0--0--0-----0--0--0-|3--3--3--3--3--3--3--3-|
B|--1--1--1--1-----1--1--1-|3--3--3--3--3--3--3--3-|
G|--0--0--0--0-----0--0--0-|0--0--0--0--0--0--0--0-|
D|--2--2--2--2-----2--2--2-|0--0--0--0--0--0--0--0-|
A|--3--3--3--3-----3--3--3-|2--2--2--2--2--2--2--2-|
E|--3--3--3--3-----3--3--3-|3--3--3--3--3--3--3--3-|

    
                                                                                                                                                                                                                                                                                                                                                                                                                                                                                                                                                                                                                                                                                                                                                                                                                                                                                                                                                                                                                                                                                                                                                                                              
E|--2--2--2--2--2--2--2--2-|0--0--0--0-----0--0--0-|
B|--3--3--3--3--3--3--3--3-|1--1--1--1-----1--1--1-|
G|--4--4--4--4--4--4--4--4-|0--0--0--0-----0--0--0-|
D|--4--4--4--4--4--4--4--4-|2--2--2--2-----2--2--2-|
A|--2--2--2--2--2--2--2--2-|3--3--3--3-----3--3--3-|
E|--2--2--2--2--2--2--2--2-|3--3--3--3-----3--3--3-|

    
                                                                                                                                                                                                                                                                                                                                                                                                                                                                                                                                                                                                                                                                                                                                                                                                                                                                                                                                                                                                                                                                                                                                                                                              
E|--2--2--2--2-----2--2--2-|0----------------------|
B|--3--3--3--3-----3--3--3-|0----------------------|
G|--2--2--2--2-----2--2--2-|0----------------------|
D|--0--0--0--0-----0--0--0-|2----------------------|
A|--0--0--0--0-----0--0--0-|2----------------------|
E|--2--2--2--2-----2--2--2-|0----------------------|

    
                                                                                                                                                                                                                                                                                                                                                                                                                                                                                                                                                                                                 
E|--3--3--3--3-----3--3--3-|
B|--3--3--3--3-----3--3--3-|
G|--0--0--0--0-----0--0--0-|
D|--0--0--0--0-----0--0--0-|
A|--2--2--2--2-----2--2--2-|
E|--3--3--3--3-----3--3--3-|

    
                                                                                                                                                                                                                                                                                                                                                                                                                                                                                                                                                                                                                                                                                                                                                                                                                                                                                                                                                                                                                                                                                                                                                                                              
E|--0--0--0--0-----0--0--0-|2--2--2--2-----2--2--2-|
B|--1--1--1--1-----1--1--1-|3--3--3--3-----3--3--3-|
G|--0--0--0--0-----0--0--0-|2--2--2--2-----2--2--2-|
D|--2--2--2--2-----2--2--2-|0--0--0--0-----0--0--0-|
A|--3--3--3--3-----3--3--3-|0--0--0--0-----0--0--0-|
E|--3--3--3--3-----3--3--3-|2--2--2--2-----2--2--2-|

    
                                                                                                                                                                                                                                                                                                                                                                                                                                                                                                                                                                                                                                                                                                                                                                                                                                                                                                                                                                                                                                                                                                                                                                                              
E|--0--0--0--0-----0--0--0-|3--3--3--3-----3--3--3-|
B|--1--1--1--1-----1--1--1-|3--3--3--3-----3--3--3-|
G|--0--0--0--0-----0--0--0-|0--0--0--0-----0--0--0-|
D|--2--2--2--2-----2--2--2-|0--0--0--0-----0--0--0-|
A|--3--3--3--3-----3--3--3-|2--2--2--2-----2--2--2-|
E|--3--3--3--3-----3--3--3-|3--3--3--3-----3--3--3-|

    
                                                                                                                                                                                                                                                                                                                                                                                                                                                                                                                                                                                                                                                                                                                                                                                                                                                                                                                                                                                                                                                                                                                                                                                              
E|--0--0--0--0-----0--0--0-|2--2--2--2-----2--2--2-|
B|--1--1--1--1-----1--1--1-|3--3--3--3-----3--3--3-|
G|--0--0--0--0-----0--0--0-|2--2--2--2-----2--2--2-|
D|--2--2--2--2-----2--2--2-|0--0--0--0-----0--0--0-|
A|--3--3--3--3-----3--3--3-|0--0--0--0-----0--0--0-|
E|--3--3--3--3-----3--3--3-|2--2--2--2-----2--2--2-|

    
                                                                                                                                                                                                                                                                                                                                                                                                                                                                                                                                                                                                                                                                                                                                                                                                                                                                                                                                                                                                                                                                                                                                                                                              
E|--0--0--0--0-----0--0--0-|2--2--2--2--2--2--2--2-|
B|--1--1--1--1-----1--1--1-|3--3--3--3--3--3--3--3-|
G|--0--0--0--0-----0--0--0-|4--4--4--4--4--4--4--4-|
D|--2--2--2--2-----2--2--2-|4--4--4--4--4--4--4--4-|
A|--3--3--3--3-----3--3--3-|2--2--2--2--2--2--2--2-|
E|--3--3--3--3-----3--3--3-|2--2--2--2--2--2--2--2-|

    
                                                                                                                                                                                                                                                                                                                                                                                                                                                                                                                                                                                                                                                                                                                                                                                                                                                                                                                                                                                                                                                                                                                                                                                              
E|--0--0--0--0-----0--0--0-|2--2--2--2-----2--2--2-|
B|--1--1--1--1-----1--1--1-|3--3--3--3-----3--3--3-|
G|--0--0--0--0-----0--0--0-|2--2--2--2-----2--2--2-|
D|--2--2--2--2-----2--2--2-|0--0--0--0-----0--0--0-|
A|--3--3--3--3-----3--3--3-|0--0--0--0-----0--0--0-|
E|--3--3--3--3-----3--3--3-|2--2--2--2-----2--2--2-|

    
                                                                                                                                                                                                                                                                                                                                                                                                                                                                                                                                                                                                                                                                                                                                                                                                                                                                                                                                                                                                                                                                                                                                                                                              
E|--2--2--2--2-----2--2--2-|2--2--2--2--2--2--2--2-|
B|--3--3--3--3-----3--3--3-|3--3--3--3--3--3--3--3-|
G|--2--2--2--2-----2--2--2-|4--4--4--4--4--4--4--4-|
D|--0--0--0--0-----0--0--0-|4--4--4--4--4--4--4--4-|
A|--0--0--0--0-----0--0--0-|2--2--2--2--2--2--2--2-|
E|--2--2--2--2-----2--2--2-|2--2--2--2--2--2--2--2-|

    
                                                                                                                                                                                                                                                                                                                                                                                                                                                                                                                                                                                                                                                                                                                                                                                                                                                                                                                                                                                                                                                                                                                                                                                              
E|--0--0--0--0-----0--0--0-|2--2--2--2-----2--2--2-|
B|--1--1--1--1-----1--1--1-|3--3--3--3-----3--3--3-|
G|--0--0--0--0-----0--0--0-|2--2--2--2-----2--2--2-|
D|--2--2--2--2-----2--2--2-|0--0--0--0-----0--0--0-|
A|--3--3--3--3-----3--3--3-|0--0--0--0-----0--0--0-|
E|--3--3--3--3-----3--3--3-|2--2--2--2-----2--2--2-|

    
                                                                                                                                                                                                                                                                                                                                                                                                                                                                                                                                                                                                                                                                                                                                                                                                                                                                                                                                                                                                                                                                                                                                                                                              
E|--2----------------------|3--3--3--3-----3--3--3-|
B|--3----------------------|3--3--3--3-----3--3--3-|
G|--2----------------------|0--0--0--0-----0--0--0-|
D|--0----------------------|0--0--0--0-----0--0--0-|
A|--0----------------------|2--2--2--2-----2--2--2-|
E|--2----------------------|3--3--3--3-----3--3--3-|

    
                                                                                                                                                                                                                                                                                                                                                                                                                                                                                                                                                                                                                                                                                                                                                                                                                                                                                                                                                                                                                                                                                                                                                                                              
E|--2--2--2--2-----2--2--2-|0--0--0--0-----0--0--0-|
B|--3--3--3--3-----3--3--3-|0--0--0--0-----0--0--0-|
G|--2--2--2--2-----2--2--2-|0--0--0--0-----0--0--0-|
D|--0--0--0--0-----0--0--0-|2--2--2--2-----2--2--2-|
A|--0--0--0--0-----0--0--0-|2--2--2--2-----2--2--2-|
E|--2--2--2--2-----2--2--2-|0--0--0--0-----0--0--0-|

    
                                                                                                                                                                                                                                                                                                                                                                                                                                                                                                                                                                                                                                                                                                                                                                                                                                                                                                                                                                                                                                                                                                                                                                                              
E|--0--0--0--0-----0--0--0-|3--3--3--3--3--3--3--3-|
B|--1--1--1--1-----1--1--1-|3--3--3--3--3--3--3--3-|
G|--0--0--0--0-----0--0--0-|0--0--0--0--0--0--0--0-|
D|--2--2--2--2-----2--2--2-|0--0--0--0--0--0--0--0-|
A|--3--3--3--3-----3--3--3-|2--2--2--2--2--2--2--2-|
E|--3--3--3--3-----3--3--3-|3--3--3--3--3--3--3--3-|

    
                                                                                                                                                                                                                                                                                                                                                                                                                                                                                                                                                                                                                                                                                                                                                                                                                                                                                                                                                                                                                                                                                                                                                                                              
E|--2--2--2--2--2--2--2--2-|0--0--0--0-----0--0--0-|
B|--3--3--3--3--3--3--3--3-|1--1--1--1-----1--1--1-|
G|--4--4--4--4--4--4--4--4-|0--0--0--0-----0--0--0-|
D|--4--4--4--4--4--4--4--4-|2--2--2--2-----2--2--2-|
A|--2--2--2--2--2--2--2--2-|3--3--3--3-----3--3--3-|
E|--2--2--2--2--2--2--2--2-|3--3--3--3-----3--3--3-|

    
                                                                                                                                                                                                                                                                                                                                                                                                                                                                                                                                                                                                                                                                                                                                                                                                                                                                                                                                                                                                                                                                                                                                                                                              
E|--2--2--2--2-----2--2--2-|3--3--3--3-----3--3--3-|
B|--3--3--3--3-----3--3--3-|3--3--3--3-----3--3--3-|
G|--2--2--2--2-----2--2--2-|0--0--0--0-----0--0--0-|
D|--0--0--0--0-----0--0--0-|0--0--0--0-----0--0--0-|
A|--0--0--0--0-----0--0--0-|2--2--2--2-----2--2--2-|
E|--2--2--2--2-----2--2--2-|3--3--3--3-----3--3--3-|

    
                                                                                                                                                                                                                                                                                                                                                                                                                                                                                                                                                                                                                                                                                                                                                                                                                                                                                                                                                                                                                                                                                                                                                                                              
E|--2--2--2--2-----2--2--2-|0--0--0--0-----0--0--0-|
B|--3--3--3--3-----3--3--3-|0--0--0--0-----0--0--0-|
G|--2--2--2--2-----2--2--2-|0--0--0--0-----0--0--0-|
D|--0--0--0--0-----0--0--0-|2--2--2--2-----2--2--2-|
A|--0--0--0--0-----0--0--0-|2--2--2--2-----2--2--2-|
E|--2--2--2--2-----2--2--2-|0--0--0--0-----0--0--0-|

    
                                                                                                                                                                                                                                                                                                                                                                                                                                                                                                                                                                                                                                                                                                                                                                                                                                                                                                                                                                                                                                                                                                                                                                                              
E|--0--0--0--0-----0--0--0-|3--3--3--3--3--3--3--3-|
B|--1--1--1--1-----1--1--1-|3--3--3--3--3--3--3--3-|
G|--0--0--0--0-----0--0--0-|0--0--0--0--0--0--0--0-|
D|--2--2--2--2-----2--2--2-|0--0--0--0--0--0--0--0-|
A|--3--3--3--3-----3--3--3-|2--2--2--2--2--2--2--2-|
E|--3--3--3--3-----3--3--3-|3--3--3--3--3--3--3--3-|

    
                                                                                                                                                                                                                                                                                                                                                                                                                                                                                                                                                                                                                                                                                                                                                                                                                                                                                                                                                                                                                                                                                                                                                                                              
E|--2--2--2--2--2--2--2--2-|0--0--0--0-----0--0--0-|
B|--3--3--3--3--3--3--3--3-|1--1--1--1-----1--1--1-|
G|--4--4--4--4--4--4--4--4-|0--0--0--0-----0--0--0-|
D|--4--4--4--4--4--4--4--4-|2--2--2--2-----2--2--2-|
A|--2--2--2--2--2--2--2--2-|3--3--3--3-----3--3--3-|
E|--2--2--2--2--2--2--2--2-|3--3--3--3-----3--3--3-|

    
                                                                                                                                                                                                                                                                                                                                                                                                                                                                                                                                                                                                                                                                                                                                                                                                                                                                                                                                                                                                                                                                                                                                                                                              
E|--2--2--2--2-----2--2--2-|0----------------------|
B|--3--3--3--3-----3--3--3-|0----------------------|
G|--2--2--2--2-----2--2--2-|0----------------------|
D|--0--0--0--0-----0--0--0-|2----------------------|
A|--0--0--0--0-----0--0--0-|2----------------------|
E|--2--2--2--2-----2--2--2-|0----------------------|

    
                                                                                                                                                                                                                                                                                                                                                                                                                                                                                                                                                                                                 
E|--3--3--3--3-----3--3--3-|
B|--3--3--3--3-----3--3--3-|
G|--0--0--0--0-----0--0--0-|
D|--0--0--0--0-----0--0--0-|
A|--2--2--2--2-----2--2--2-|
E|--3--3--3--3-----3--3--3-|

    
                                                                                                                                                                                                                                                                                                                                                                                                                                                                                                                                                                                                                                                                                                                                                                                                                                                                                                                                                                                                                                                                                                                                                                                              
E|--0--0--0--0-----0--0--0-|2--2--2--2-----2--2--2-|
B|--1--1--1--1-----1--1--1-|3--3--3--3-----3--3--3-|
G|--0--0--0--0-----0--0--0-|2--2--2--2-----2--2--2-|
D|--2--2--2--2-----2--2--2-|0--0--0--0-----0--0--0-|
A|--3--3--3--3-----3--3--3-|0--0--0--0-----0--0--0-|
E|--3--3--3--3-----3--3--3-|2--2--2--2-----2--2--2-|

    
                                                                                                                                                                                                                                                                                                                                                                                                                                                                                                                                                                                                                                                                                                                                                                                                                                                                                                                                                                                                                                                                                                                                                                                              
E|--0--0--0--0-----0--0--0-|3--3--3--3-----3--3--3-|
B|--1--1--1--1-----1--1--1-|3--3--3--3-----3--3--3-|
G|--0--0--0--0-----0--0--0-|0--0--0--0-----0--0--0-|
D|--2--2--2--2-----2--2--2-|0--0--0--0-----0--0--0-|
A|--3--3--3--3-----3--3--3-|2--2--2--2-----2--2--2-|
E|--3--3--3--3-----3--3--3-|3--3--3--3-----3--3--3-|

    
                                                                                                                                                                                                                                                                                                                                                                                                                                                                                                                                                                                                                                                                                                                                                                                                                                                                                                                                                                                                                                                                                                                                                                                              
E|--0--0--0--0-----0--0--0-|2--2--2--2-----2--2--2-|
B|--1--1--1--1-----1--1--1-|3--3--3--3-----3--3--3-|
G|--0--0--0--0-----0--0--0-|2--2--2--2-----2--2--2-|
D|--2--2--2--2-----2--2--2-|0--0--0--0-----0--0--0-|
A|--3--3--3--3-----3--3--3-|0--0--0--0-----0--0--0-|
E|--3--3--3--3-----3--3--3-|2--2--2--2-----2--2--2-|

    
                                                                                                                                                                                                                                                                                                                                                                                                                                                                                                                                                                                                                                                                                                                                                                                                                                                                                                                                                                                                                                                                                                                                                                                              
E|--0--0--0--0-----0--0--0-|2--2--2--2--2--2--2--2-|
B|--1--1--1--1-----1--1--1-|3--3--3--3--3--3--3--3-|
G|--0--0--0--0-----0--0--0-|4--4--4--4--4--4--4--4-|
D|--2--2--2--2-----2--2--2-|4--4--4--4--4--4--4--4-|
A|--3--3--3--3-----3--3--3-|2--2--2--2--2--2--2--2-|
E|--3--3--3--3-----3--3--3-|2--2--2--2--2--2--2--2-|

    
                                                                                                                                                                                                                                                                                                                                                                                                                                                                                                                                                                                                                                                                                                                                                                                                                                                                                                                                                                                                                                                                                                                                                                                              
E|--0--0--0--0-----0--0--0-|2--2--2--2-----2--2--2-|
B|--1--1--1--1-----1--1--1-|3--3--3--3-----3--3--3-|
G|--0--0--0--0-----0--0--0-|2--2--2--2-----2--2--2-|
D|--2--2--2--2-----2--2--2-|0--0--0--0-----0--0--0-|
A|--3--3--3--3-----3--3--3-|0--0--0--0-----0--0--0-|
E|--3--3--3--3-----3--3--3-|2--2--2--2-----2--2--2-|

    
                                                                                                                                                                                                                                                                                                                                                                                                                                                                                                                                                                                                                                                                                                                                                                                                                                                                                                                                                                                                                                                                                                                                                                                              
E|--2--2--2--2-----2--2--2-|2--2--2--2--2--2--2--2-|
B|--3--3--3--3-----3--3--3-|3--3--3--3--3--3--3--3-|
G|--2--2--2--2-----2--2--2-|4--4--4--4--4--4--4--4-|
D|--0--0--0--0-----0--0--0-|4--4--4--4--4--4--4--4-|
A|--0--0--0--0-----0--0--0-|2--2--2--2--2--2--2--2-|
E|--2--2--2--2-----2--2--2-|2--2--2--2--2--2--2--2-|

    
                                                                                                                                                                                                                                                                                                                                                                                                                                                                                                                                                                                                                                                                                                                                                                                                                                                                                                                                                                                                                                                                                                                                                                                              
E|--0--0--0--0-----0--0--0-|2--2--2--2-----2--2--2-|
B|--1--1--1--1-----1--1--1-|3--3--3--3-----3--3--3-|
G|--0--0--0--0-----0--0--0-|2--2--2--2-----2--2--2-|
D|--2--2--2--2-----2--2--2-|0--0--0--0-----0--0--0-|
A|--3--3--3--3-----3--3--3-|0--0--0--0-----0--0--0-|
E|--3--3--3--3-----3--3--3-|2--2--2--2-----2--2--2-|

About Rayando El Sol : The album covers the songs by Mexican rock band Maná . The album, Rayando El Sol, is released by Universal Music on August 17, It had a contribution from notable artists like Manny Manuel. It had an affiliation to bands - Rayando El Sol. Its music is influenced by genres - latin.

tabs and chords, guitar tabs, music transcription, music technology, deep learning, music information retrieval, transcribe into tabs & chords, chordify, music renditions, songsterr, reverbnation, tabulature, bollywood chords, ultimate guitar, yousician, guitar lessons, acoustic guitar, electric guitar, guitar tuner, 911 tabs