Guitar Tabs for Rain Song Bridge

(/) Slide Up  (\) Slide Down  (h) Hammer On  (p) Pull Off  (b) Bend (r) Release (v) Vibrato (x) Muted

Tabs for Song : 

Song lyrics here
E|-----------------------------------------------------------------------------------------------
B|-----------------------------------------------------------------------------------------------
G|-----------------------------------------------------------------------------------------------
D|--------------------4--5--4-----------------------------------1-----------------1--------------
A|--------5-----7-----------------7-----5-----------------4-----------------4-----------4--------
E|--7-----------------------------------------7-----3-----------------3-----------------------3--

E|--------------------------------------------------------------------------------------------------
B|--------------------------------------------------------------------------------------------------
G|--------------------------------------------------------------------------------------------------
D|-----------------------4--5--4-----------------------------------1-----------------1--------------
A|-----------5-----7-----------------7-----5-----------------4-----------------4-----------4--------
E|-----7-----------------------------------------7-----3-----------------3-----------------------3--

E|--------------------------------------------------------------------------------------------------
B|--------------------------------------------------------------------------------------------------
G|--------------------------------------------------------------------------------------------------
D|-----------------1-----------------------4-----------------------------4--5--4--------------------
A|-----------2-----------2-----------4-----------4-----------5-----7-----------------7-----5--------
E|-----4-----------------------6-----------------------7-----------------------------------------7--

E|--------------------------------------------------------------------------------------------------
B|--------------------------------------------------------------------------------------------------
G|--------------------------------------------------------------------------------------------------
D|-----------------1-----------------1-----------------------------------4--5--4--------------------
A|-----------4-----------------4-----------4-----------------5-----7-----------------7-----5--------
E|-----3-----------------3-----------------------3-----7-----------------------------------------7--

E|--------------------------------------------------------------------------------------------------------
B|--------------------------------------------------------------------------------------------------------
G|--------------------------------------------------------------------------------------------------------
D|-----------------1-----------------1-----------------------------1-----------------------4--------------
A|-----------4-----------------4-----------4-----------------2-----------2-----------4-----------4-----2--
E|-----3-----------------3-----------------------3-----4-----------------------6--------------------------

E|--------------------------------------------------------------------------------------------------------
B|--------------------------------------------------------------------------------------------------------
G|-----------1-----------------------3-----------------------3-----------------3--------------------------
D|-----2-----------2-----------4-----------4-----------5-----------------5-----------------5--------------
A|-----------------------4-----------------------6-----------------6-----------------6-----------6-----7--
E|--------------------------------------------------------------------------------------------------------

E|-----------------------------------------------------------------------------------------
B|-----------------------------------------------------------------------------------------
G|-----------------------------------------------------------------------------------------
D|-----6-----5-----8-----9-----8-----------13-13-13-13-11-11-11-11-9--9--9--9--------------
A|-----------------------------------10----------------------------------------10----10-10-
E|-----------------------------------------------------------------------------------------

E|--------------------------------------------------------------------------------------------------
B|--------------------------------------------------------------------------------------------------
G|--------------------------------------------------------------------------------------------------
D|--9-----9-----13----13----11----11----6-----6-----6-----6-----6-----7-----7-----7-----6-----6-----
A|--11----11----11----11----11----11----7-----7-----7-----7-----7-----7-----7-----7-----7-----7-----
E|--------------------------------------------------------------------------------------------------

E|-----------------------------------------------------------------
B|-----------------------------------------------------------------
G|----------------------------------------------------------------
D|--------------------------------------1-----1-----1-----1-----1--
A|--6-----6-----7-----7-----6-----6-----2-----2-----2-----2-----2--
E|--7-----7-----7-----7-----7-----7-----3-----3-----3-----3-----3--

Song lyrics here
E|--
B|--
G|--
D|--
A|--
E|--

Paste any tab in acousterr's tab maker and we'll play it !!!
Now supports capo and sound effects for vibrato/pull-off/hammer/bends/mutes etc !!! Checkout help section
tabs and chords, guitar tabs, music contests, music covers, songsterr, reverbnation, renditions, tabulature, bollywood chords, ultimate guitar, yousician, guitar lessons, torrins, fender, gibson, acoustic guitar, electric guitar, youtube covers, gootar, guitar tuner, A-Z tabs, 911 tabs