Guitar Tabs for Rains Of Castamere Tabs

(/) Slide Up  (\) Slide Down  (h) Hammer On  (p) Pull Off  (b) Bend (r) Release (v) Vibrato (x) Muted

Tabs for Song : Rain Of Castamere
E|-----1-----0-----1---1h3--0-----3--1--0--------------
B|------------------------------------------3/5--5-----
G|--2-----2-----2--------------2-----------------------
D|-----------------------------------------------------
A|-----------------------------------------------3-----
D|-----0--------------------------0--------------------

E|-----5--5--6--3-----5---5/6--3--5--6--5--------------
B|-----------------------------------------8--6--5-----
G|-----------------5-----------------------------------
D|--5--------------------------------------------------
A|--------------3--------------3-----------------0-----
D|-----3--------------3--------------5-----------------

E|-----1-----------0-----1---------1h3--0-----3-----1--0-----------------
B|---------------------------------------------------------3/5-----------
G|--2-----------2-----2--------------------2-----------------------5-----
D|-----------0-----------------0--------------------0-----------5--------
A|--------0-----------------0--------------------0-----------3-----------
D|-----0-----------------0--------------------0--------------------------

E|-----5--------6--3-----5---------5/6--3--5--6--------5--3-----1--------------------------
B|-----------------------------------------------------------------3-----------------------
G|--5-----------------5-----------------------------------------2-----------2--------------
D|-----------3-----------------3--------------------5--------2-----------0-----0-----------
A|--------3--------3--------3-----------3--------5--------0-----------0-----------0--------
D|-----3-----------------3--------------------5--------------------0-----------------0-----

E|------------0h1-----------1---1p0--------------1--1-----------1---1p0--------
B|-----------------3-----------------1-----1-----------3--------------------1--
G|--------2--------------------------------2--2-----------------------------2--
D|-----0-----------------0--------------2--------------------0-----------2-----
A|--0-----------------0--------0--------------------------0--------0-----------
D|-----------0-----------------------------------0-----------------------------

E|--------0--------------5--5--------------1--1--5---5\3--0--1--------------------------
B|-----------6--------------------8-----------------------------3-----------------------
G|---2/8--------7-----------------------7--------------------------------2--------------
D|--------------------8--------------5--------------------------------0-----0-----------
A|-----------------------0-----5--------------1-----0--------------0-----------0--------
D|--------8--------8--------5-----------------------------------0-----------------0-----

E|-----1-----0-----1--3--0-----3--1--0-----------5-----------5--6-----5--6--5--------------
B|---------------------------------------3/5-----------8-----------8-----------8--6--------
G|--2-----2-----2-----------2-----------------5-----5-----5--------------------------7-----
D|-----------------------------------------------------------------------------------------
A|-----------------------------------------------------------------------------------------
D|-----------------------------------------------------------------------------------------

E|------0h1-----------1---1p0--------------1--1-----------1---1p0--------
B|-----------3-----------------1-----1-----------3--------------------1--
G|--2--------------------------------2--2-----------------------------2--
D|-----------------0--------------2--------------------0-----------2-----
A|--------------0--------0--------------------------0--------0-----------
D|-----0-----------------------------------0-----------------------------

E|--------0--------------5--5--------------1--1-----------0-----1--------
B|-----------6--------------------8--------------------3-----------3-----
G|---2/8--------7-----------------------7-----------3--------------------
D|--------------------8--------------5-----------3-----------2-----------
A|-----------------------0-----5--------------1-----------0--------------
D|--------8--------8--------5--------------------------------------0-----

E|--------------0--------------5--5--------------1--1--5---5\3--0--1--------
B|-----------------6--------------------8-----------------------------3-----
G|---------2/8--------7-----------------------7-----------------------2-----
D|-----0--------------------8--------------5--------------------------0-----
A|--0--------------------------0-----5--------------1-----0-----------0-----
D|--------------8--------8--------5-----------------------------------0-----

	

Now supports capo and sound effects for vibrato/pull-off/hammer/bends/mutes etc !!! Checkout help section
tabs and chords, guitar tabs, music contests, music covers, songsterr, reverbnation, renditions, tabulature, bollywood chords, ultimate guitar, yousician, guitar lessons, torrins, fender, gibson, acoustic guitar, electric guitar, youtube covers, gootar, guitar tuner, A-Z tabs, 911 tabs