Guitar Tabs for Rage Fueled Monday - Guitar Solo

(/) Slide Up  (\) Slide Down  (h) Hammer On  (p) Pull Off  (b) Bend (r) Release (v) Vibrato (x) Muted

Tabs for Song : 

Song lyrics here
E|-----------------------------------------------
B|-----------------------------------------------
G|-----------------------12-14b16-14b16-14b16-12v
D|-----------------12-14-------------------------
A|--------12-13-14-------------------------------
E|--12-15----------------------------------------

Song lyrics here
E|--------------------------------------------------------
B|--------------------------------------------------------
G|-----------------------12-14-12----12p14-12----14-12----
D|-----------------12-14----------14----------14-------14-
A|--------12-13-14----------------------------------------
E|--12-15-------------------------------------------------
Paste any tab in acousterr's tab maker and we'll play it !!!
E|-----------------------------------------------
B|--------------------------15b17-15b17-15b17-15v
G|-----------------------12----------------------
D|-----------------12-14-------------------------
A|--------12-13-14-------------------------------
E|--12-15----------------------------------------

E|--12b---12b---12b---12b---17b---17b---17b---18-17-15-12v
B|--15b17-15b17-15b17-15b17-20b22-20b22-20b22-------------
G|--------------------------------------------------------
D|--------------------------------------------------------
A|--------------------------------------------------------
E|--------------------------------------------------------

Now supports capo and sound effects for vibrato/pull-off/hammer/bends/mutes etc !!! Checkout help section
tabs and chords, guitar tabs, music transcription, music technology, deep learning, music information retrieval, transcribe into tabs & chords, chordify, music renditions, songsterr, reverbnation, tabulature, bollywood chords, ultimate guitar, yousician, guitar lessons, acoustic guitar, electric guitar, guitar tuner, 911 tabs