Guitar Tabs for Rage Against The Machine - Settle For Nothing (guitar Solo)

Rage Against The Machine - Settle For Nothing (Guitar Solo)

1st Part
E|--14-12-10-------------------------------------------------
B|-----------14-12-10-------------------------------12h14h15-
G|--------------------12-11-9--11----------11h12h14----------
D|--------------------------------11h12h14-------------------
A|-----------------------------------------------------------
E|-----------------------------------------------------------

2nd Part
E|-----------14-15-17-17/19-17-15-14-------
B|--12h14h15-------------------------15----
G|--------------------------------------14-
D|-----------------------------------------
A|-----------------------------------------
E|-----------------------------------------

3rd Part
E|-----------------------------------------------------------
B|-----------------------------------------12----14----------
G|--11-12-14-12-11----11-11-11-12-11-12-11----11----11-12-11-
D|-----------------14----------------------------------------
A|-----------------------------------------------------------
E|-----------------------------------------------------------

4th Part
E|-----------------------x-----x--
B|-----------------------x-----x--
G|--11h12h14-14b16r14----x-----x--
D|-----------------------x-----x--
A|-----------------------x-----x--
E|-----------------------x-----x--

5th Part
E|--10-11-12-11-10----------------------------------------------------------------------------10----------
B|-----------------12-11-10----11-10-------------------------------------------------10-12-13----13-12-10-
G|--------------------------12-------12-11-10----11-10----------------------10-11-12----------------------
D|--------------------------------------------12-------12-11-10----10-11-12-------------------------------
A|--------------------------------------------------------------12----------------------------------------
E|--------------------------------------------------------------------------------------------------------

E|--12-11-10-------------------------------------
B|-----------12-11-10----11-10-------------------
G|--------------------12-------12-11-10-9--------
D|-----------------------------------------10-9--
A|-----------------------------------------------
E|-----------------------------------------------

6th Part
E|-----------13-12-------------------------------------------
B|--12h14h15-------12h14h15-15-14----------------------------
G|--------------------------------------------11----11----11-
D|-----------------------------------11h12h14----------------
A|-----------------------------------------------------------
E|-----------------------------------------------------------

tabs and chords, guitar tabs, music transcription, music technology, deep learning, music information retrieval, transcribe into tabs & chords, chordify, music renditions, songsterr, reverbnation, tabulature, bollywood chords, ultimate guitar, yousician, guitar lessons, acoustic guitar, electric guitar, guitar tuner, 911 tabs