Guitar Tabs for Radioactive

Radioactive -Imagine Dragons: 
BPM : 136 intro, 68 Chorus

Intro
E|-----2--------------0--------------2--0--------------------0-----------------------------
B|--0-----0--3-----0--------0-----0--------0-----0--3-----0--------0-----0--3-----0-----0--
G|--------------2--------------2--------------2--------2--------------2--------2-----------
D|-----------------------------------------------------------------------------------------
A|-----------------------------------------------------------------------------------------
E|-----------------------------------------------------------------------------------------
 
 Verse

E|-----2--2--0--------2--2--0--------------------------------------2--2--0-----------------
B|--0--------------0--------------2--2--2--3--2--2--3--2--0-----0--------------------------
G|-----------------------------------------------------------------------------2--2--2--2--
D|-----------------------------------------------------------------------------------------
A|-----------------------------------------------------------------------------------------
E|-----------------------------------------------------------------------------------------

E|-----2--2--0--------2--2--0--------------------------------------2--2--0-----------------
B|--0--------------0--------------2--2--2--3--2--2--3--2--0-----0--------------------------
G|-----------------------------------------------------------------------------2--2--2--2--
D|-----------------------------------------------------------------------------------------
A|-----------------------------------------------------------------------------------------
E|-----------------------------------------------------------------------------------------

E|--------------------------7--7--7--5--5--2--------5--5--5--4--4--0--
B|-----2--0-----0--0--0--0--------------------------------------------
G|--2-----------------------------------------2--2--------------------
D|--------------------------------------------------------------------
A|--------------------------------------------------------------------
E|--------------------------------------------------------------------
 
 Chorus

E|----2--0--2--0--2--------2--0--2------2--0--2--0--2--------------------
B|--------------------0--------------0-----------------0-----0--0--0--3--
G|-----------------------------------------------------------------------
D|-----------------------------------------------------------------------
A|-----------------------------------------------------------------------
E|-----------------------------------------------------------------------

E|--2--0-----0--------2--0-----0--------5--5--5--5--4-----4--4--4--4--2--
B|--------3-----0-----------3-----0--------------------------------------
G|-----------------------------------------------------------------------
D|-----------------------------------------------------------------------
A|-----------------------------------------------------------------------
E|-----------------------------------------------------------------------

E|--2--0-----0--------2--0-----0--------5--5--5--5--4-----4--4--4--4--2--
B|--------3-----0-----------3-----0--------------------------------------
G|-----------------------------------------------------------------------
D|-----------------------------------------------------------------------
A|-----------------------------------------------------------------------
E|-----------------------------------------------------------------------

 Verse

E|-----------0-----------------------------------0-----------------------
B|--3-----3-----2-----2-----2--0--0-----3-----3-----2-----2-----2--0--0--
G|-----------------------------------------------------------------------
D|-----------------------------------------------------------------------
A|-----------------------------------------------------------------------
E|-----------------------------------------------------------------------

 Chorus

E|--------------7--7--7--5--5--2-----------5--5--5--4--4--
B|--0--0--0--0--------------------------2-----------------
G|--------------------------------------------------------
D|--------------------------------------------------------
A|--------------------------------------------------------
E|--------------------------------------------------------

E|--2--0--2--0--2--------2--0--2--------2--0--2--0--2--------------------
B|-----------------0--------------0--------------------0-----0--0--0--3--
G|-----------------------------------------------------------------------
D|-----------------------------------------------------------------------
A|-----------------------------------------------------------------------
E|-----------------------------------------------------------------------

E|--2--0-----0--------2--0-----0--------5--5--5--5--4-----4--4--4--4--2--
B|--------3-----0-----------3-----0--------------------------------------
G|-----------------------------------------------------------------------
D|-----------------------------------------------------------------------
A|-----------------------------------------------------------------------
E|-----------------------------------------------------------------------

E|--2--0-----0--------2--0-----0--------5--5--5--5--4-----4--4--4--4--2----
B|--------3-----0-----------3-----0-----------------------------------------
G|--------------------------------------------------------------------------
D|--------------------------------------------------------------------------
A|--------------------------------------------------------------------------
E|--------------------------------------------------------------------------




tabs and chords, guitar tabs, music transcription, music technology, deep learning, music information retrieval, transcribe into tabs & chords, chordify, music renditions, songsterr, reverbnation, tabulature, bollywood chords, ultimate guitar, yousician, guitar lessons, acoustic guitar, electric guitar, guitar tuner, 911 tabs