Guitar Tabs for Raat Kali Ek Khwab Tabs

(/) Slide Up  (\) Slide Down  (h) Hammer On  (p) Pull Off  (b) Bend (r) Release (v) Vibrato

Tabs for Song : Raat kali Ek khwab Mein Aayi- single string

Raat kali ek khwab mein aayi
E|-----------------------------------------------
B|--5--7--9--10----9--7--9-----7--5--7--7--3-----
G|-----------------------------------------------
D|-----------------------------------------------
A|-----------------------------------------------
E|-----------------------------------------------

aur gale ka haar hui
E|-----------------------------------------
B|--3--7--7--7-----7--9--10-9--5--7--5-----
G|-----------------------------------------
D|-----------------------------------------
A|-----------------------------------------
E|-----------------------------------------

subha ko jab hum nend se jaage
E|-----7--7--7--7--------9--7--7--7--7--------
B|--9--------------9--------------------9-----
G|--------------------------------------------
D|--------------------------------------------
A|--------------------------------------------
E|--------------------------------------------

aankh unhi se chaar hui
E|--9--------------------4--5--5--5--4--2--0-----
B|-----7--7--7--9--10-7--------------------------
G|-----------------------------------------------
D|-----------------------------------------------
A|-----------------------------------------------
E|-----------------------------------------------

chahe kaho ise meri mohabbat
E|--4--5--7--5-----4--4-----4--5--7--5--4-----
B|--------------------------------------------
G|--------------------------------------------
D|--------------------------------------------
A|--------------------------------------------
E|--------------------------------------------

chahe hasi mein udaa do
E|--4--5--4--5--7--9--7--9--10-9-----
B|-----------------------------------
G|-----------------------------------
D|-----------------------------------
A|-----------------------------------
E|-----------------------------------

ye kya hua mujhe mujhko khabar nahi
E|--10-9--10-9--7--7--9--7--9--7--5--5-----
B|-----------------------------------------
G|-----------------------------------------
D|-----------------------------------------
A|-----------------------------------------
E|-----------------------------------------

ho sake tum hi bata do
E|--4--5--7--------------------
B|-----------7--9--12-10-9-----
G|-----------------------------
D|-----------------------------
A|-----------------------------
E|-----------------------------

tumne kadam jo rakha jameen par
E|--7--10-9--9--7--7--9--7--5--5-----
B|-----------------------------------
G|-----------------------------------
D|-----------------------------------
A|-----------------------------------
E|-----------------------------------

seene me kyun jhankar hui
E|--9-----------------------------
B|-----7--7--7-----10-9--7--5-----
G|--------------------------------
D|--------------------------------
A|--------------------------------
E|--------------------------------


Add more lines by placing cursor below and adding notes
tabs and chords, guitar tabs, music contests, music covers, songsterr, reverbnation, renditions, tabulature, bollywood chords, ultimate guitar, yousician, guitar lessons, torrins, fender, gibson, acoustic guitar, electric guitar, youtube covers, gootar, guitar tuner, A-Z tabs, 911 tabs