Guitar Tabs for Raabta Song

(/) Slide Up  (\) Slide Down  (h) Hammer On  (p) Pull Off  (b) Bend (r) Release (v) Vibrato (x) Muted

Tabs for Song : Raabta(Agent Vinod)

kehte hai khuda ne is
E|--------------------------
B|-----0--1--0--1--0--3--1--
G|--0-----------------------
D|--------------------------


 jahan me sabhi k liye


E|--------------------------
B|-----0--1--0--1--0--3--1--
G|--2-----------------------
D|--------------------------


kisi na kisi ko hai

E|--------------------------
B|-----0--1--0--1--0--3--1--
G|--0-----------------------
D|--------------------------


banaya har kisi k liye


E|--------------------------
B|-----0--1--0--1--0--3--1--
G|--2-----------------------
D|--------------------------


tera milna hai us


E|--------------------0-----
B|-----1--3--1--3--1-----1--
G|--2-----------------------
D|--------------------------


 rab ka ishara mano

E|--------------------0-----
B|-----1--3--1--3--1-----1--
G|--2-----------------------
D|--------------------------


mujhko banayab tere jaise hi kisi ke liye

E|--0-------------------------------------------0--
B|----1--1--0--0-----------------0-----0--1--------
G|----------------2--2--0--0--2-----2--------2-----
D|-------------------------------------------------



kuch toh hai tujhse raabta


E|--0-----0-----0-----0-----1--0----
B|-----3-----3-----3--------------3-
G|-----------------------0----------
D|----------------------------------



kuch toh hai tujhse raabta


E|--0-----0-----0-----0-----1--0----
B|-----3-----3-----3--------------3-
G|-----------------------0----------
D|----------------------------------


kaise hum jane hume kya pata

E|--------------------0--------0--------
B|--1--0--1--0--1--0-----3--1-----------
G|--------------------------------2--2--
D|--------------------------------------

kuch toh hai tujhse raabta


E|--0-----0-----0-----0-----1--0----
B|-----3-----3-----3--------------3-
G|-----------------------0----------
D|----------------------------------


tu humsafar hai phir kya fikar hai
E|-----1--0--------0-----1--0--------0--
B|-----------1--1--------------1--1-----
G|--2-----------------2-----------------
D|--------------------------------------


jeene ki wajah yahi hai marna isi k liye

E|--0-----------------------------------------0--
B|-----1--1--0--0--------------1-----1--1--------
G|-----------------2--2--0--2-----2--------2-----
D|-----------------------------------------------

tabs and chords, guitar tabs, music contests, music covers, songsterr, reverbnation, renditions, tabulature, bollywood chords, ultimate guitar, yousician, guitar lessons, torrins, fender, gibson, acoustic guitar, electric guitar, youtube covers, gootar, guitar tuner, A-Z tabs, 911 tabs