Guitar Tabs for Quiero Ver

(/) Slide Up  (\) Slide Down  (h) Hammer On  (p) Pull Off  (b) Bend (r) Release (v) Vibrato (x) Muted

Tabs for Song : 

intro/Versos
E|--------------------------------------------------------------------------------------------------
B|--------------------------------------------------------------------------------------------------
G|--------------------------------------------------------------------------------------------------
D|--------------------------------------------------------------------------------------------------
A|--------------------------2--2--2--2--2--2--2--2--------------------------------------------------
E|--0--0--0--0--0--0--0--0--------------------------2--2--2--2--2--2--2--2--5--5--5--5--5--5--5--5--

Puente entre primer verso y segundo verso
E|-----------------------------------------------------------------------------------------
B|-----------------------------------------------------------------------------------------
G|-----------------------------------------------------------------------------------------
D|-----------------------------------------------------------------------------------------
A|--------------2--2--2--2-----------------------------------2--2--2--2--------------------
E|--0--0--0--0--------------2--2--2--2--5--5-----0--0--0--0--------------2--2--2--2--5--5--
Coro ''Eres lo que quiero ver....'' x4
E|--------------------------------------------------
B|--------------------------------------------------
G|-----------------------------------------6-----4--
D|--------------------------------------------------
A|--------------2--2--2--2--0--0--0--0--4-----2-----
E|--0--0--0--0--------------------------------------
Puente ''Mi madre me lleva al psicologo...'' x2
E|--------------------------------------
B|--------------------------------------
G|--------------------------------------
D|--------------------------------------
A|--4--2-----------------------4--2-----
E|--------0-----0--2--4--0-----------0--
Segunda parte del puente (lo mismo que lo de arriba pero con bajeo y un pequeño detalle x2
E|--------------------------------------------------------------------------------------------------------
B|--------------------------------------------------------------------------------------------------------
G|--------------------------------------------------------------------------------------------------------
D|-----------------------------2--2--2--2--2--2--2--1-----------------------------2--2--2--2--2--2--2--1--
A|--4--4--4--4--4--2--2--2--2-----------------------------4--4--4--4--2--2--2--2--------------------------
E|--------------------------------------------------------------------------------------------------------

Paste any tab in acousterr's tab maker and we'll play it !!!
Now supports capo and sound effects for vibrato/pull-off/hammer/bends/mutes etc !!! Checkout help section
tabs and chords, guitar tabs, music contests, music covers, songsterr, reverbnation, renditions, tabulature, bollywood chords, ultimate guitar, yousician, guitar lessons, torrins, fender, gibson, acoustic guitar, electric guitar, youtube covers, gootar, guitar tuner, A-Z tabs, 911 tabs