Guitar Tabs for Queen - Crazy Little Thing Called Love

Queen - Crazy Little Thing Called Love

Strum Pattern -> DU-DU-UDU

Intro
 
    D     D4    D
E|--2-----3-----2--
B|--3-----3-----3--
G|--2-----2-----2--   4X
D|--0-----0-----0--
A|-----------------
E|-----------------

1st Verse

          D                    G        C           G
T his thing,  called love, I just  can't  handle it
E|--------2--------------------3--------0-----------3--
B|--------3--------------------3--------1-----------3--
G|--------2--------------------4--------0-----------4--
D|--------0--------------------5--------2-----------5--
A|-----------------------------5--------3-----------5--
E|-----------------------------3--------------------3--

          D                    G          C       G
This thing,  called love, I must, get round to it
E|--------2--------------------3--------0-----------3--
B|--------3--------------------3--------1-----------3--
G|--------2--------------------4--------0-----------4--
D|--------0--------------------5--------2-----------5--
A|-----------------------------5--------3-----------5--
E|-----------------------------3--------------------3--
        
       D        Bb             C           D
I ain't ready,  crazy little thing called love
E|-----2--------1--------------0-----------2--
B|-----3--------3--------------1-----------3--
G|-----2--------3--------------0-----------2--
D|-----0--------3--------------2-----------0--
A|--------------1--------------3--------------
E|--------------------------------------------

2nd Verse

          D                    G        C           G
This thing, called love, it cries, in a cradle all night
E|--------2--------------------3--------0-----------3--
B|--------3--------------------3--------1-----------3--
G|--------2--------------------4--------0-----------4--
D|--------0--------------------5--------2-----------5--
A|-----------------------------5--------3-----------5--
E|-----------------------------3--------------------3--
      D                     G                    C     G
  It swings, it jives, it shakes all over like a jellyfish
E|-----2--------------------3--------------------0-----3--
B|-----3--------------------3--------------------1-----3--
G|-----2--------------------4--------------------0-----4--
D|-----0--------------------5--------------------2-----5--
A|--------------------------5--------------------3-----5--
E|--------------------------3--------------------------3--
          D        Bb          C           D
I kinda like it, crazy little thing called love.
E|--------2--------1-----------0-----------2--
B|--------3--------3-----------1-----------3--
G|--------2--------3-----------0-----------2--
D|--------0--------3-----------2-----------0--
A|-----------------1-----------3--------------
E|--------------------------------------------

Bridge

               G         C                    G
 There goes my baby, she knows how to rock and roll
E|--------------3--------0--------------------3--
B|--------------3--------1--------------------3--
G|--------------4--------0--------------------4--
D|--------------5--------2--------------------5--
A|--------------5--------3--------------------5--
E|--------------3-----------------------------3--

                Bb                  E
She drives me crazy, she gives me hot and cold fever
E|--------------1--------------------0--------------
B|--------------3--------------------0--------------
G|--------------3--------------------1--------------
D|--------------3--------------------2--------------
A|--------------1--------------------2--------------
E|-----------------------------------0--------------

          A
then she leaves me in a cool, cool sweat.
E|--------0-----------------------------
B|--------2-----------------------------
G|--------2-----------------------------
D|--------2-----------------------------
A|--------0-----------------------------
E|--------------------------------------

E|--------------------------------------------------------------------
B|--------------------------------------------------------------------
G|--------------------------------------------------------------------
D|--------------------------------------------------------------------
A|--5--4--3-----------------------------------------------------------
E|--------------5--4--3-----0--0--0--0--0--0--5--5--3--3--2--2--0--0--

3rd Verse

          D                 G        C         G
I gotta be cool, relax, get hip, get on my tracks
E|--------2-----------------3--------0--------3--
B|--------3-----------------3--------1--------3--
G|--------2-----------------4--------0--------4--
D|--------0-----------------5--------2--------5--
A|--------------------------5--------3--------5--
E|--------------------------3-----------------3--
       D                           G                      C     G
Take a back seat, hitch-hike, and take a long ride on my motor bike 
E|-----2--------------------------3-----------------------0-----3--
B|-----3--------------------------3-----------------------1-----3--
G|-----2--------------------------4-----------------------0-----4--
D|-----0--------------------------5-----------------------2-----5--
A|--------------------------------5-----------------------3-----5--
E|--------------------------------3-----------------------------3--
          D        Bb          C           D
until I'm ready, crazy little thing called love.
E|--------2--------1-----------0-----------2--
B|--------3--------3-----------1-----------3--
G|--------2--------3-----------0-----------2--
D|--------0--------3-----------2-----------0--
A|-----------------1-----------3--------------
E|--------------------------------------------

Solo

    Bb    D     Bb    E     A
E|--1-----2-----1-----0-----0--
B|--3-----3-----3-----0-----2--
G|--3-----2-----3-----1-----2--
D|--3-----0-----3-----2-----2--
A|--1-----------1-----2-----0--
E|--------------------0--------

E|--------------------------------------------------------------------
B|--------------------------------------------------------------------
G|--------------------------------------------------------------------
D|--------------------------------------------------------------------
A|--5--4--3-----------------------------------------------------------
E|--------------5--4--3-----0--0--0--0--0--0--5--5--3--3--2--2--0--0--

4th Verse (Acapella)

I gotta be cool, relax, get hip  
get on my tracks, take a back seat, hitch-hike
And take a long ride on my motor bike until I'm ready
crazy little thing called love

5th Verse

          D                    G        C           G
T his thing,  called love, I just  can't  handle it
E|--------2--------------------3--------0-----------3--
B|--------3--------------------3--------1-----------3--
G|--------2--------------------4--------0-----------4--
D|--------0--------------------5--------2-----------5--
A|-----------------------------5--------3-----------5--
E|-----------------------------3--------------------3--

          D                    G          C       G
This thing,  called love, I must, get round to it
E|--------2--------------------3--------0-----------3--
B|--------3--------------------3--------1-----------3--
G|--------2--------------------4--------0-----------4--
D|--------0--------------------5--------2-----------5--
A|-----------------------------5--------3-----------5--
E|-----------------------------3--------------------3--
        
       D        Bb             C           D
I ain't ready,  crazy little thing called love
E|-----2--------1--------------0-----------2--
B|-----3--------3--------------1-----------3--
G|-----2--------3--------------0-----------2--
D|-----0--------3--------------2-----------0--
A|--------------1--------------3--------------
E|--------------------------------------------

Outro

    Bb             C           D
   Crazy little thing called love
E|--1--------------0-----------2--
B|--3--------------1-----------3--
G|--3--------------0-----------2--  8x...
D|--3--------------2-----------0--
A|--1--------------3--------------
E|--------------------------------
tabs and chords, guitar tabs, music transcription, music technology, deep learning, music information retrieval, transcribe into tabs & chords, chordify, music renditions, songsterr, reverbnation, tabulature, bollywood chords, ultimate guitar, yousician, guitar lessons, acoustic guitar, electric guitar, guitar tuner, 911 tabs