Guitar Tabs for Que Boi By Zedond

(/) Slide Up  (\) Slide Down  (h) Hammer On  (p) Pull Off  (b) Bend (r) Release (v) Vibrato (x) Muted

Tabs for Song : 
BPM : 180

    Em                            Bm                       Am                      G6
E|-----------------------------0------------------------0----------------------------------------
B|--------0-----------0-----3-----3------------3-----3--------------------0--3-----0-----------0-
G|--0--2--------0--2---------------------4--------4--------2---------2-2--------2--------0--2----
D|-----------2-----------2------------4-----4------------------2-2--------------------0----------
A|--------------------------------2------------------------0-------------------------------------
E|--------0-----------0------------------------------------------------------------3-------------

    Em                            Bm                       D                       Em
E|---------------------------------0--------------------3--2--------3--2--0-----2--0-----------0-
B|------------0-----------0-----3-----3--------------------------3-----------3-----------------0-
G|------0--2--------0--2--------------------4--------4--------2-----------------------------0--0-
D|---------------2-----------2-----------4--------4--------0--------------------0--------2-----2-
A|------------------------------------2-----------------------------------------------2--------2-
E|------------0-----------0--------------------------------------------------------0-----------0-

Use manual mode to free up cursor. Paste any tab in acousterr tab maker and we'll play it !!!
tabs and chords, guitar tabs, music transcription, music technology, deep learning, music information retrieval, transcribe into tabs & chords, chordify, music renditions, songsterr, reverbnation, tabulature, bollywood chords, ultimate guitar, yousician, guitar lessons, acoustic guitar, electric guitar, guitar tuner, 911 tabs