Ukulele Tabs for Pure Imagination

-
Tabs for Song : Pure Imagination
BPM : 200

try to make the chords sound like each string is being picked indvidually i put the direction
of the way you would play the chord

A|--5-----------------------5-----------------------5-----------------------5-----------
E|--------------------------------------------------------------------------------------
C|--------1-----2-----------------1-----2-----------------1-----2-----------------1-----
G|--------------------------------------------------------------------------------------

A|--------------3-----------------3-----------------7--8---7h8---7h8--7--------------------0-----
E|--------1-----1-----------1-----1-----------1-----5-----------------5--------------1-----1-----
C|--2-----------2-----2-----------0-----2-----------5-----------------5--------2-----------2-----
G|--------------0-----------------0-----------------5-----------------5--5-----------------0-----
              down              down               down              down                 down
A|--1-----3-----0-----------------------------------
E|--------------1-----3-----1------0h3---0h3--0-----
C|--------------0------------------0h------------0--
G|--------------0------------------1h---------------
               down               down

A|-----------------3-----------------3-----------------7--8---7h8---7h8--7-----
E|-----------1-----1-----------1-----1-----------1-----5-----------------5-----
C|-----2-----------2-----2-----------0-----2-----------5-----------------5-----
G|-----------------0-----------------0-----------------5-----------------5--5--
                  down              down              down              down                
A|-----------------0-----1-----3-----0-----------------------7--------
E|-----------1-----1-----------------1-----3-----1-----0--------------
C|-----2-----------2-----------------0-----------------0--------------
G|-----------------0-----------------0--------------------------------
                  down               down                                                      
A|--------7-----6--6--------------7-----6--6--------------7-----6--6--------------7-----6--6-----
E|--4-----------------3-----4-----------------3-----4-----------------3-----4-----------------3--
C|-----------------------------------------------------------------------------------------------
G|-----------------------------------------------------------------------------------------------

A|-----------------------------------0--1--0--1--0-----0--3-----7--8--7--8--7-----5-----7--5--7--5--7--5-----------------
E|--1--3--1--3--1-----0--------------1--------------1--1--------5-----------------5--------5-----------------0--1--2--3--
C|--2-----------------0-----0--------2-----------------0--------5--------------4--4--4-----6--------------2--------------
G|--3-----------------2--------2-----0-----------------2-----------------------------------5-----------------------------
   down              down           down              down     down              up      down
A|--------------3-----------------3-----------------7--8---7h8---7h8--7--------------------0-----
E|--------1-----1-----------1-----1-----------1-----5-----------------5--------------1-----1-----
C|--2-----------2-----2-----------0-----2-----------5-----------------5--------2-----------2-----
G|--------------0-----------------0-----------------5-----------------5--5-----------------0-----
              down              down               down              down                 down
A|--1-----3-----0-----------------0-----7-----------------0--
E|--------------0-----3-----1-----0-----------0-----0-----1--
C|--------------1-----------------1-----------------------0--
G|--------------0-----------------2-----------------------2--
               down               down                   down
A|--5-----------------------5-----------------------5-----------------------5--------------
E|-----------------------------------------------------------------------------------------
C|--------1-----2-----------------1-----2-----------------1-----2-----------------1-----2--
G|-----------------------------------------------------------------------------------------
tabs and chords, guitar tabs, music transcription, music technology, deep learning, music information retrieval, transcribe into tabs & chords, chordify, music renditions, songsterr, reverbnation, tabulature, bollywood chords, ultimate guitar, yousician, guitar lessons, acoustic guitar, electric guitar, guitar tuner, 911 tabs