Promise Guitar - Guitar Tabs

(/) Slide Up  (\) Slide Down  (h) Hammer On  (p) Pull Off  (b) Bend (r) Release (v) Vibrato (x) Muted

Tabs for Song : 
BPM : 200

Song lyrics here 
E|--------------------------------------------------------------------------------
B|-----0-----------------------0-----3--2-----0-----------------------------------
G|--2-----------------------2--------------2--------------------2--2--------------
D|-----------0--0--4--2-----------------------------0--4--2--------------4--2-----
A|--------------------------------------------------------------------------------
E|--------------------------------------------------------------------------------

E|--------------------------------------------------------------------------------------------------------------------
B|--3--3--5--3-----3--3--5-----7-----0--0-----8--7--5--3--0-----3-----5-----8--7--5--3--------3-----5-----3--5--5-----
G|--------------------------------------------------------------------------------------2-----------------------------
D|--------------------------------------------------------------------------------------------------------------------
A|--------------------------------------------------------------------------------------------------------------------
E|--------------------------------------------------------------------------------------------------------------------

E|--------------------------------------------------------------------------------------------------------------------
B|--5-----5-----3--5--8-----7-----5-----3-----0-----8--7--5--3--0-----3-----5--------10----7-----5-----5--5--6--5--3--
G|--------------------------------------------------------------------------------------------------------------------
D|--------------------------------------------------------------------------------------------------------------------
A|--------------------------------------------------------------------------------------------------------------------
E|--------------------------------------------------------------------------------------------------------------------

E|-----------------------------------------------------------10-8--
B|3-10-12-10-10----3--3--3--3--5-----7--10-7-----3-----5-----------
G|-----------------------------------------------------------------
D|-----------------------------------------------------------------
A|-----------------------------------------------------------------
E|-----------------------------------------------------------------



E|--
B|--
G|--
D|--
A|--
E|--



G|--
D|--
A|--
E|--

Song lyrics here 
E|--
B|--
G|--
D|--
A|--
E|--

Use manual mode to free up cursor. Paste any tab in acousterr tab maker and we'll play it !!!

About Himawari no Yakusoku : "Himawari no Yakusoku" is a single released by Motohiro Hata . The title track was used as the theme song for the movie Stand by Me Doraemon (2014) It was released in 2014. The track was release in 2014. Himawari no Yakusoku has a significant contribution from artist(s) Motohiro Hata.

About Motohiro Hata - Motohiro Hata debuted under the major label BMG Japan in 2006 with the single "Synchro" He debuted under Hata is the youngest of three brothers . He moved to Yokohama when he was 2 . He began playing guitar at age 3, after his eldest brother got 3,000 yen from a friend . In 1999, he performed at his first big concert at the F.A.D Yokohama Motohiro Hata's most popular songs include - Synchro. Motohiro Hata's music is influenced by genre(s) - j-pop punk rock (early).

tabs and chords, guitar tabs, music transcription, music technology, deep learning, music information retrieval, transcribe into tabs & chords, chordify, music renditions, songsterr, reverbnation, tabulature, bollywood chords, ultimate guitar, yousician, guitar lessons, acoustic guitar, electric guitar, guitar tuner, 911 tabs