Bass Tabs for Projeto 1

(/) Slide Up  (\) Slide Down  (h) Hammer On  (p) Pull Off  (b) Bend (r) Release (v) Vibrato (x) Muted

Tabs for Song : 
BPM : 200

Song lyrics here 
G|-----------------------------------------------------------------------------------------------------------
D|-----------2--2--2--2--3--3--3--3--2--2--2--2--5--5--5--5--2--2--2--2--3--3--3--3--2--2--2--2--5--5--5--5--
A|-----------------------------------------------------------------------------------------------------------
E|--------------------------------------------------------------------------------------------------

Song lyrics here 

G|--------------------------------------------------------------------------
D|--------------------------------------------------------------------------
A|--2--2--2--2--3--3--3--3--2--2--2--2--5--5--5--5--2--2--2--2--5--5--5--5--
E|--------------------------------------------------------------------------

G|--------------------------------------------------------------------------------------------------
D|--------------------------------------------------------------------------------------------------
A|--------------------------------------------------------------------------------------------------
E|--3--3--3--3--4--4--4--4--3--3--3--3--4--4--4--4--3--3--3--3--4--4--4--4--3--3--3--3--4--4--4--4--

G|--------------------------------------------------------------------------------------------------
D|--------------------------------------------------------------------------------------------------
A|--------------------------------------------------------------------------------------------------
E|--3--3--3--3--4--4--4--4--3--3--3--3--4--4--4--4--3--3--3--3--4--4--4--4--3--3--3--3--4--4--4--4--

G|--------------------------------------------------
D|--2--2--2--2--3--3--3--3--2--2--2--2--5--5--5--5--
A|--------------------------------------------------
E|--------------------------------------------------

G|--------------------------------------------------
D|--------------------------------------------------
A|--------------------------------------------------
E|--3--3--3--3--4--4--4--4--3--3--3--3--4--4--4--4--

G|--------------------------------------------------------------------------------------------------
D|--------------------------------------------------------------------------------------------------
A|--------------------------------------------------------------------------------------------------
E|--3--3--3--3--7--7--7--7--3--3--3--3--9--9--9--9--3--3--3--3--7--7--7--7--3--3--3--3--9--9--9--9--

G|--------------------------------------------------------------------------------------------------
D|--------------------------------------------------------------------------------------------------
A|--------------------------------------------------------------------------------------------------
E|--3--3--3--3--7--7--7--7--3--3--3--3--9--9--9--9--3--3--3--3--7--7--7--7--3--3--3--3--9--9--9--9--

G|--------------------------------------------------
D|--2--2--2--2--3--3--3--3--2--2--2--2--5--5--5--5--
A|--------------------------------------------------
E|--------------------------------------------------

G|--------------------------------------------------------------------------------------------------
D|--------------------------------------------------------------------------------------------------
A|--------------------------------------------------------------------------------------------------
E|--3--3--3--3--7--7--7--7--3--3--3--3--9--9--9--9--3--3--3--3--7--7--7--7--3--3--3--3--9--9--9--9--

G|--------------------------------------------------------------------------------------------------------------------------
D|--------------------------------------------------------------------------------------------------------------------------
A|--5--5--5--5--4-----6--------------5--5--5--5--4-----6--------------5--5--5--5--4-----6--------------5--5--5--5--4-----6--
E|--------------------------------------------------------------------------------------------------------------------------

G|--------------------------------------------------------------------------------------------------
D|--------------------------------------------------------------------------------------------------
A|--------------------------------------------------------------------------------------------------
E|--3--3--3--3--7--7--7--7--3--3--3--3--9--9--9--9--3--3--3--3--7--7--7--7--3--3--3--3--9--9--9--9--

G|--------------------------------------------------------------------------------------------------------------------------------------------------------------
D|--------------------------------------------------------2--2--2--2--3--3--3--3--2--2--2--2--5--5--5-----5-----5--------5--------5-----------5--------------5--
A|--------------------------------------------------------------------------------------------------------------------------------------------------------------
E|--5--5--5--5--4-----6--------------5--5--5--5--4-----6--------------------------------------------------------------------------------------------------------


















Use manual mode to free up cursor. Paste any tab in acousterr tab maker and we'll play it !!!
tabs and chords, guitar tabs, music transcription, music technology, deep learning, music information retrieval, transcribe into tabs & chords, chordify, music renditions, songsterr, reverbnation, tabulature, bollywood chords, ultimate guitar, yousician, guitar lessons, acoustic guitar, electric guitar, guitar tuner, 911 tabs