Guitar Tabs for Prettyboy Pop Rhythm

(/) Slide Up  (\) Slide Down  (h) Hammer On  (p) Pull Off  (b) Bend (r) Release (v) Vibrato (x) Muted

Tabs for Song : Prettyboy Pop (Rhythm Guitar)

Intro (x4)
E|--------------------------------------------------
B|--------------------------------------------------
G|--9--9--9--9--9--9--9--9--9--9--9--9--9--9--9--9--
D|--------------------------------------------------
A|--9--9--9-----------------7--7--7-----------------
E|-----------7--7--7--7--7-----------9--9--9--9--9--

Instrumental Chorus (x4)
E|--------------------------------------------------
B|--------------------------------------------------
G|--------------6--6--6--6--2--2--2--2--4--4--4--4--
D|--2--2--2--2--6--6--6--6--2--2--2--2--4--4--4--4--
A|--2--2--2--2--4--4--4--4--0--0--0--0--2--2--2--2--
E|--0--0--0--0--------------------------------------

Verse x2
(nothing for the first half but then you play, palm muted:
E|--------------------------------------------------
B|--------------------------------------------------
G|-----------4--4--4--4--4-----------2--2--2--2--2--
D|--4--4--4--4--4--4--4--4--2--2--2--2--2--2--2--2--
A|--4--4--4--2--2--2--2--2--2--2--2--0--0--0--0--0--
E|--2--2--2-----------------0--0--0-----------------

E|--------------------------------------------------
B|--------------------------------------------------
G|-----------4--4--4--4--4-----------6--6--6--6--6--
D|--4--4--4--4--4--4--4--4--2--2--2--6--6--6--6--6--
A|--4--4--4--2--2--2--2--2--2--2--2--4--4--4--4--4--
E|--2--2--2-----------------0--0--0-----------------


Chorus (x4)
E|--------------------------------------------------
B|--------------------------------------------------
G|--------------6--6--6--6--2--2--2--2--4--4--4--4--
D|--2--2--2--2--6--6--6--6--2--2--2--2--4--4--4--4--
A|--2--2--2--2--4--4--4--4--0--0--0--0--2--2--2--2--
E|--0--0--0--0--------------------------------------

Verse 2 (x4, Nothing for the first half, but second half come in with:
E|--------------------------------------------------
B|--------------------------------------------------
G|--9--9--9--9--9--9--9--9--9--9--9--9--9--9--9--9--
D|--------------------------------------------------
A|--9--9--9-----------------7--7--7-----------------
E|-----------7--7--7--7--7-----------9--9--9--9--9--

Chorus 2 (x8)
E|--------------------------------------------------
B|--------------------------------------------------
G|--------------6--6--6--6--2--2--2--2--4--4--4--4--
D|--2--2--2--2--6--6--6--6--2--2--2--2--4--4--4--4--
A|--2--2--2--2--4--4--4--4--0--0--0--0--2--2--2--2--
E|--0--0--0--0--------------------------------------

Bridge Pt 1 (x2)
E|--------------------------------
B|--------------------------------
G|--2--------4-----------------6--
D|--2--------4--------2--------6--
A|--0--------2--------2--------4--
E|--------------------0-----------

Bridge pt 2 (x3)
E|--------------------------------
B|--------------------------------
G|--2--2--2--2--------4--4--4--4--
D|--2--2--2--2--------4--4--4--4--
A|--0--0--0--0--------2--2--2--2--
E|--------------------------------

E|--------------------------------
B|--------------------------------
G|--------------------6--6--6--6--
D|--2--2--2--2--------6--6--6--6--
A|--2--2--2--2--------4--4--4--4--
E|--0--0--0--0--------------------

Bridge pt 4 (x1)
E|-----------------------------
B|-----------------------------
G|--2--------4-----------------
D|--2--------4--------2--------
A|--0--------2--------2--------
E|--------------------0--------

Bridge pt 5 (x4, palm muted)
E|-----------------------------------------------
B|-----------------------------------------------
G|-----------------6--6-----2--2--2--2-----4--4--
D|--2--2--2--2-----6--6-----2--2--2--2-----4--4--
A|--2--2--2--2-----4--4-----0--0--0--0-----2--2--
E|--0--0--0--0-----------------------------------

Chorus 3 (x8)
E|--------------------------------------------------
B|--------------------------------------------------
G|--------------6--6--6--6--2--2--2--2--4--4--4--4--
D|--2--2--2--2--6--6--6--6--2--2--2--2--4--4--4--4--
A|--2--2--2--2--4--4--4--4--0--0--0--0--2--2--2--2--
E|--0--0--0--0--------------------------------------

Outro
E|--------
B|--------
G|--------
D|--2-----
A|--2-----
E|--0-----
tabs and chords, guitar tabs, music transcription, music technology, deep learning, music information retrieval, transcribe into tabs & chords, chordify, music renditions, songsterr, reverbnation, tabulature, bollywood chords, ultimate guitar, yousician, guitar lessons, acoustic guitar, electric guitar, guitar tuner, 911 tabs