Guitar Tabs for Prelude No. 1 Part 2 - Aaron Shearer

Tabs for Song : Prelude No. 1 Part 2 by Aaron Shearer

E|--------------------------0-----0-----------------0-----0--------------------------------------
B|--1-----1-----3-----3-----------------1-----1-----------------3-----0-----1-----1-----1--0--0--
G|-----------------------------------------------------------------------------------------------
D|-----------------------------------------------------------------------------------------------
A|-----------------------------------------------------------------------------------------------
E|-----------------------------------------------------------------------------------------------

E|-----------------------------0-----0-----------------0-----0-----------------3-----3-----0-----------
B|-----1-----1-----3-----3-----------------1-----1-----------------3-----0-----------------------1-----
G|-----------------------------------------------------------------------------------------------------
D|-----------------------------------------------------------------------------------------------------
A|-----------------------------------------------------------------------------------------------------
E|-----------------------------------------------------------------------------------------------------

tabs and chords, guitar tabs, music transcription, music technology, deep learning, music information retrieval, transcribe into tabs & chords, chordify, music renditions, songsterr, reverbnation, tabulature, bollywood chords, ultimate guitar, yousician, guitar lessons, acoustic guitar, electric guitar, guitar tuner, 911 tabs