Guitar Tabs for Practice Exercise 1 By Jake Trimble

BPM : 120

E|--------------------------------------------------------------------------------------------------------------8--7--6--5--6--5--4--3--------------------------
B|--------------------------------------------------------------------------------------------------8--7--6--5--------------------------3--4--5--6--5--6--7--8--
G|--------------------------------------10-9--8--7--8--7--6--5--------------------------5--6--7--8--------------------------------------------------------------
D|--------------------------7--8--9--10-------------------------5--6--7--8--7--8--9--10-------------------------------------------------------------------------
A|--------------10-9--8--7--------------------------------------------------------------------------------------------------------------------------------------
E|--12-11-10-9--------------------------------------------------------------------------------------------------------------------------------------------------

E|--------------------------------------------------------------------------------------------------------------------------------------------------------------------------------------------------------------------------------------------
B|--------------------------------------------------------------------------------------------------------------------------------------------------------------------------------------------------------------------------------------------
G|--7--8--9--10----------------------------------------------------------10-9--8--7--8--7--6--5-----------------------------------------------------------------10-9--8--7--8--7--6--5--------------------------------------------------------
D|--------------7--8--9--10----------------------------------7--8--9--10-------------------------5--6--7--8--7--8--9--10----------------------------12-10-9--7--------------------------5--6--7--8--7--8--9--10-9--10-11-12-11-12-13-14-14-14-
A|--------------------------10-9--8--7-----------10-9--8--7-----------------------------------------------------------------------10-9--10-9-----12-------------------------------------------------------------------------------------------
E|--------------------------------------12-12-12-------------------------------------------------------------------------12-12-12-------------12----------------------------------------------------------------------------------------------
tabs and chords, guitar tabs, music transcription, music technology, deep learning, music information retrieval, transcribe into tabs & chords, chordify, music renditions, songsterr, reverbnation, tabulature, bollywood chords, ultimate guitar, yousician, guitar lessons, acoustic guitar, electric guitar, guitar tuner, 911 tabs