Guitar Tabs for Practice

(/) Slide Up  (\) Slide Down  (h) Hammer On  (p) Pull Off  (b) Bend (r) Release (v) Vibrato

Tabs for Song : 

Song lyrics here
E|-----------------------------------------7--8--
B|-----------------------------------8--10-------
G|--------------------------7--9--10-------------
D|-----------------7--9--10----------------------
A|--------7--8--10-------------------------------
E|--8--10----------------------------------------

E|-----------------------------7--8--10-12-14-15-
B|--------------------7--8--10-------------------
G|--------------7--9-----------------------------
D|-----7--9--10----------------------------------
A|--10-------------------------------------------
E|-----------------------------------------------

E|--------------------------------------7--9--10-
B|-----------------------------7--8--10----------
G|--------------------6--7--9--------------------
D|--------------7--9-----------------------------
A|-----7--9--10----------------------------------
E|--10-------------------------------------------

E|-----------------------------------------------
B|--------------------------------------7--9--10-
G|-----------------------------6--7--9-----------
D|--------------------6--7--9--------------------
A|-----------5--7--9-----------------------------
E|--5--7--9--------------------------------------

E|-----------------------------------7--9--11-12-
B|--------------------------7--9--10-------------
G|-----------------6--8--9-----------------------
D|--------6--7--9--------------------------------
A|--7--9-----------------------------------------
E|-----------------------------------------------

Song lyrics here
E|--
B|--
G|--
D|--
A|--
E|--

Add more lines by placing cursor below and adding notes
tabs and chords, guitar tabs, music transcription, music technology, deep learning, music information retrieval, transcribe into tabs & chords, chordify, music renditions, songsterr, reverbnation, tabulature, bollywood chords, ultimate guitar, yousician, guitar lessons, acoustic guitar, electric guitar, guitar tuner, 911 tabs