Guitar Tabs for Power In The Blood 4

(/) Slide Up  (\) Slide Down  (h) Hammer On  (p) Pull Off  (b) Bend (r) Release (v) Vibrato (x) Muted

Tabs for Song : power in the blood
E|--3--2--1--------------------------------------------------0-----0--
B|--5--4--3-----------------------1--------1--0--3--1--3--1-----3-----
G|--4--3--2--0--0--2--0--0--0--2-----2--0--------------------0-----0--
D|--5--4--3-----------------------2--------2--0--3--2--3--2-----3-----
A|-----------3--2--3--3--2-----3-----3--------------------------------
E|--------------------------3-----------3-----------------------------


Song lyrics here
E|-----------------------------------------------------
B|--------------------1--------1--0--3--1--3--1--0--1--
G|--0--2--0--0--0--2-----2--0--------------------------
D|--------------------2--------2--0--3--2--3--2--0--2--
A|--2--3--3--2-----3-----3-----------------------------
E|--------------3-----------3--------------------------


E|--------0--0--------------------------------0--------0--0--------------------1--0-----------
B|-----1--------3--1--1--------1--1--3--1--3--------1--------3--1--1-----0--3--------3--3--1--
G|--0-----0--0-----------2--0-----------------0--0-----0--0-----------0--------2--0-----------
D|-----2--------3--2--2--------2--2--3--2--3--------2--------3--2--2-----0-----------3--3-----
A|-----------------------3--2-----------------------------------------2--------------------3--
E|--3--------------------------------------------3--------------------------3-----------------


Song lyrics here
E|--
B|--
G|--
D|--
A|--
E|--

Paste any tab in acousterr's tab maker and we'll play it !!!
Now supports capo and sound effects for vibrato/pull-off/hammer/bends/mutes etc !!! Checkout help section
tabs and chords, guitar tabs, music transcription, music technology, deep learning, music information retrieval, transcribe into tabs & chords, chordify, music renditions, songsterr, reverbnation, tabulature, bollywood chords, ultimate guitar, yousician, guitar lessons, acoustic guitar, electric guitar, guitar tuner, 911 tabs