Guitar Tabs for Portal 2 (want You Gone)

(/) Slide Up  (\) Slide Down  (h) Hammer On  (p) Pull Off  (b) Bend (r) Release (v) Vibrato (x) Muted

Tabs for Song : 

Song lyrics here
E|--------------------------------------------------------------------------------------------------
B|--------------------------------------------------------------------------------------------------
G|--------------------------------------------------------------------------------------------------
D|-----2-----2-----1-----------0-----0-----3-----------2-----2-----1-----------0-----0-----3--------
A|--0-----0-----0-----------0-----0-----0-----------0-----0-----0-----------0-----0-----0-----------
E|--------------------------------------------------------------------------------------------------

Song lyrics here
E|--------------------------------------------------------------------------------------------
B|-----------0--2--3--2-----------------0--------------------0--2--3--2--0--------------------
G|--------2--------------------2--2--------2--1--2--------2-----------------2-----4--1--------
D|-----2-----------------------------2-----------------2--------------------------------------
A|--------------------------------------------------------------------------------------------
E|--------------------------------------------------------------------------------------------

E|--------------------------------------------------------------------------------------2-----
B|-----------------0--2--3--2-----------------0--------------------0--2--3--2--0--------------
G|--------------2--------------------2--2--------2--1--2--------2-----------------2-----------
D|-----------2-----------------------------2-----------------2--------------------------------
A|--------------------------------------------------------------------------------------------
E|--------------------------------------------------------------------------------------------

E|--0--------------------------------------6-----4-----2--------------------------------------------
B|-----2--0--------------------0--2--2--------------------------------------------------------------
G|-----------3--------------3-----------------------------------------------------------------------
D|--------------------------------------------------------------------------9--8-----9--8-----------
A|--------------------------------------------------------------------------------9--------9--------
E|--------------------------------------------------------------------------------------------------

E|--------------------------------------6-----4-----2-----2--------2--0--0-----------
B|--------------------------0--2--2--------------------------------------------3--2--
G|-----------------------3-----------------------------------------------------------
D|-----------------------------------------------------------------------------------
A|-----------------------------------------------------------------------------------
E|-----------------------------------------------------------------------------------

E|--------------------------------------------------------------------------------------------------
B|--------------------------------------------------------------------------------------------------
G|--------------------------------------------------------------------------------------------------
D|-----2-----2-----1-----------0-----0-----3-----------2-----2-----1-----------0-----0-----3--------
A|--0-----0-----0-----------0-----0-----0-----------0-----0-----0-----------0-----0-----0-----------
E|--------------------------------------------------------------------------------------------------

E|-----------------------------------------------------------------------------------------------------
B|-----------0--2--3--2-----------------0--------------------0--2--3--2--0-----------------------------
G|--------2--------------------2--2--------2--1--2--------2-----------------2-----4--1-----------------
D|-----2-----------------------------2-----------------2-----------------------------------------------
A|-----------------------------------------------------------------------------------------------------
E|-----------------------------------------------------------------------------------------------------

E|-----------------------------------------------------------------------------2--0-----------------------
B|--------0--2--3--2-----------------0--------------------0--2--3--2--0-----------------2--0--------------
G|-----2--------------------2--2--------2--1--2--------2-----------------2--------------------3-----------
D|--2-----------------------------2-----------------2-----------------------------------------------------
A|--------------------------------------------------------------------------------------------------------
E|--------------------------------------------------------------------------------------------------------

E|-----------------6-----4-----2--------------------------------------------------------------------
B|-----0--2--2--------------------------------------------------------------------------------------
G|--3-----------------------------------------------------------------------------------------------
D|--------------------------------------------------9--8-----9--8-----------------------------------
A|--------------------------------------------------------9--------9--------------------------------
E|--------------------------------------------------------------------------------------------------

E|--------------------6-----4-----2-----2--------2--0--0-----------
B|--------0--2--2--------------------------------------------3--2--
G|-----3-----------------------------------------------------------
D|-----------------------------------------------------------------
A|-----------------------------------------------------------------
E|-----------------------------------------------------------------

E|--------------------------------------------------------------------------------------------------
B|--------------------------------------------------------------------------------------------------
G|--------------------------------------------------------------------------------------------------
D|-----2-----2-----1-----------0-----0-----3-----------2-----2-----1-----------0-----0-----3--------
A|--0-----0-----0-----------0-----0-----0-----------0-----0-----0-----------0-----0-----0-----------
E|--------------------------------------------------------------------------------------------------

E|--------------------------------------------------------------------------------------------------
B|--------------------------------------------------------------------------------------------------
G|--------------------------------------------------------------------------------------------------
D|-----2-----2-----1-----------0-----0-----3-----------2-----2-----1-----------0-----0-----3--------
A|--0-----0-----0-----------0-----0-----0-----------0-----0-----0-----------0-----0-----0-----------
E|--------------------------------------------------------------------------------------------------

E|--------------------------------------------------------------------------------------------------
B|--------------------------------------------------------------------------------------------------
G|--------------------------------------------------------------------------------------------------
D|-----2-----2-----1-----1-----0-----0-----3-----3-----2-----2-----1-----1-----0-----0-----3-----3--
A|--0-----0-----0-----0-----0-----0-----0-----0-----0-----0-----0-----0-----0-----0-----0-----0-----
E|--------------------------------------------------------------------------------------------------

E|----------------------------------------------------------------------------------------------------
B|--2-----2-----1-----1-----0-----0-----3-----3-----2-----2-----1-----1-----0-----0-----3-----5--------
G|--2-----2-----1-----1-----0-----0-----3-----3-----2-----2-----1-----1-----0-----0-----3-----5--------
D|-----------------------------------------------------------------------------------------------------
A|-----------------------------------------------------------------------------------------------------
E|-----------------------------------------------------------------------------------------------------

E|-----------------6-----4-----2-----------------------------------------------------------
B|-----0--2--2-----------------------------------------------------------------------------
G|--3--------------------------------------------------------------------------------------
D|--------------------------------------------------9--8-----9--8--------------------------
A|--------------------------------------------------------9--------9-----------------------
E|-----------------------------------------------------------------------------------------

E|-----------------6-----7-----6--4--2--2------2--0--0----------------------------
B|-----0--2--2--------------------------------------------3--2-----0--------------
G|--3-----------------------------------------------------------------2-----------
D|--------------------------------------------------------------------------------
A|--------------------------------------------------------------------------------
E|--------------------------------------------------------------------------------

E|-----2-----2--2--0--0--------------------------------2-----2--2--0--0---------------------------------------
B|--------------------------3--2-----------------------------------------------3--------2--------------------
G|--------------------------------------------------------------------------------------2--------------------
D|-----------------------------------------------------------------------------------------------------------
A|-----------------------------------------------------------------------------------------------------------
E|-----------------------------------------------------------------------------------------------------------



Paste any tab in acousterr's tab maker and we'll play it !!!
Now supports capo and sound effects for vibrato/pull-off/hammer/bends/mutes etc !!! Checkout help section
tabs and chords, guitar tabs, music transcription, music technology, deep learning, music information retrieval, transcribe into tabs & chords, chordify, music renditions, songsterr, reverbnation, tabulature, bollywood chords, ultimate guitar, yousician, guitar lessons, acoustic guitar, electric guitar, guitar tuner, 911 tabs