Guitar Tabs for Pokemon Black And White Village Bridge Theme

(/) Slide Up  (\) Slide Down  (h) Hammer On  (p) Pull Off  (b) Bend (r) Release (v) Vibrato (x) Muted

Tabs for Song : 

Song lyrics here
E|-----------------------------------------------------------------------------------------------------------------------------------------
B|--------------------------3--6-----3--------------------------------------------------------------3--6-----3-----------------------------
G|--------------------2--5--------5-----2-----2--------------2--------------------------------2--5--------5-----2-----2--------------------
D|--------3--------5-----------------------------5--3-----3-----5-----------------3--------5-----------------------------5--3-----------3--
A|--3--5-----------------------------------------------5--------------------3--5-----------------------------------------------5--3--5-----
E|-----------------------------------------------------------------------------------------------------------------------------------------

E|-----------------------------------------------------------------------------------------------------------------------------------------
B|--------------------------3--6-----3--------------------------------------------------------------3--6-----3-----------------------------
G|--------------------2--5--------5-----2-----2--------------2--------------------------------2--5--------5-----2-----2--------------------
D|--------3--------5-----------------------------5--3-----3-----5-----------------3--------5-----------------------------5--3-----------3--
A|--3--5-----------------------------------------------5--------------------3--5-----------------------------------------------5--3--5-----
E|-----------------------------------------------------------------------------------------------------------------------------------------

E|-----------------------------------------------------------------------------------------------------------------------------------------------3-----------
B|--------3-----------3--6--------------------------------------------------------------3-----------3--6-----3--------------------3-----------6-----3--6-----
G|--2--5--------------------5--------------2-----------------------2v-------------2--5--------------------5-----2-----------2--5--------------------------5--
D|--------------------------------------5-----5--3--------------3--------------------------------------------------------------------------------------------
A|--------------------------------------------------5--------------------------------------------------------------------------------------------------------
E|-----------------------------------------------------------------------------------------------------------------------------------------------------------



Song lyrics here
E|--
B|--
G|--
D|--
A|--
E|--

Paste any tab in acousterr's tab maker and we'll play it !!!
Now supports capo and sound effects for vibrato/pull-off/hammer/bends/mutes etc !!! Checkout help section

Play at https://www.acousterr.com/tabmaker
tabs and chords, guitar tabs, music transcription, music technology, deep learning, music information retrieval, transcribe into tabs & chords, chordify, music renditions, songsterr, reverbnation, tabulature, bollywood chords, ultimate guitar, yousician, guitar lessons, acoustic guitar, electric guitar, guitar tuner, 911 tabs