Bass Tabs for Plebe Rude - Até Quando Esperar

BASS TAB
Plebe Rude - Até Quando Esperar

Intro Solo
G|-----------------------------------
D|-----------------------------------
A|-----------7--5-----------------5--
E|--5--7--8--------5-----8--7--5-----

Intro
G|--------------------------------------------------
D|--------------------------------------------------
A|--5--------5-----------------7--5--------------5--
E|--------------------5--7--8--------5--8--7--5-----

Verse
G|--------------------------------------
D|--------------------------------------  2x
A|--5--5--5--5--------------5--5--5--5--
E|--------------1--1--3--3--------------

Tension & Guitar Solo
G|--------------------------------------------------
D|--------------------------------------------------  2x
A|--------------------------------------5--5--5--5--
E|--5--5--5--5--3--3--3--3--1--1--1--1--------------

1st Chorus 
G|--------------------------------------------------------
D|--------------------------------------3---3h5--3--------
A|--3--3--5--5-----5--3--5--3--5--3--5--------------5--3--
E|--1--1--3--3--------------------------------------------

2nd Chorus
G|--------------------------------------------------------
D|--------------------------------------------------------
A|--3--3--5--5--3--3--3--5--5--3--3--5--5--5--3--5--3--5--
E|--1--1--3--3--1--1--1--3--3--1--1--3--3-----------------

G|--------------------------------------
D|--------------------------------------
A|--3--3--5--5--3--3--5--5--3--3--5--5--
E|--1--1--3--3--1--1--3--3--1--1--3--3--

Bass Solo & Variation
G|-----------------------------------------------------------------------
D|-----------------------------------------------------------------------
A|--5--5--5-----5--7--7-----5--------3--3--3--5-----5--7--7-----5--------
E|-----------5-----------5-----------------------------------5-----------

G|----------------------------------------------  -------------    --------------------
D|----------------------------------------------  ----9-------- ou -----9-----10----11-
A|--2--2--2--5-----5--7--7-----5--------3--3--5-  -------------    --------------------
E|--------------------------5-------------------  -7-----8--9--    --7-----8-----9-----

Last Note - D (3x)
tabs and chords, guitar tabs, music transcription, music technology, deep learning, music information retrieval, transcribe into tabs & chords, chordify, music renditions, songsterr, reverbnation, tabulature, bollywood chords, ultimate guitar, yousician, guitar lessons, acoustic guitar, electric guitar, guitar tuner, 911 tabs