Bass Tabs for Play That Funky Music - Wild Cherry

(/) Slide Up  (\) Slide Down  (h) Hammer On  (p) Pull Off  (b) Bend (r) Release (v) Vibrato (x) Muted

Tabs for Song : 

Song lyrics here
G|--------------------------------
D|--------2--0--2-----------0--2--
A|--------------------0--2--------
E|--0-----------------------------


G|-----------------------------------------------3--3--
D|-----------------5--3--5--------3--5-----------------
A|--------------------------3--5--------------1--------
E|--0--1--2--3-----------------------------------------

ta-da-da-
G|--9--7-----7-----------------------------------
D|--------9-----9--7--9--9--7--9--7--------------
A|-----------------------------------10-7--------
E|-----------------------------------------10-0--


Paste any tab in acousterr's tab maker and we'll play it !!!
Now supports capo and sound effects for vibrato/pull-off/hammer/bends/mutes etc !!! Checkout help section
tabs and chords, guitar tabs, music transcription, music technology, deep learning, music information retrieval, transcribe into tabs & chords, chordify, music renditions, songsterr, reverbnation, tabulature, bollywood chords, ultimate guitar, yousician, guitar lessons, acoustic guitar, electric guitar, guitar tuner, 911 tabs