Guitar Tabs for Plastic Faces & Lipstick Traces

(/) Slide Up  (\) Slide Down  (h) Hammer On  (p) Pull Off  (b) Bend (r) Release (v) Vibrato (x) Muted

Tabs for Song : 
BPM : 200

Repeat this twice
E|--------------------------------------------------------er
B|--------------------------------------------------------
G|-----9-----------8--------------6-----------4------6p4--
D|-----------6-----------6-----6--------6-----------------
A|--------------------------------------------------------
E|--0-----0-----0-----0-----0--------0-----0-----0--------

Play this and repeat the line above
E|--------------------------------------------------0--
B|-----------------------------------------------9--1--
G|-----9-----------8-----------9-----------8--------2--
D|-----------7-----------7-----------7--------------2--
A|--0-----0-----0-----0-----0-----0-----0-----0-----0--
E|-----------------------------------------------------
Chorus. Play twice.
E|--------------------------------------------------------------------------------------------------------------------------
B|-----------9-----------9-----------------7-----------7-----------------5-----------5-----------------4-----------4--------
G|-----8-----------8-----------8-----6-----------6-----------6-----4-----------4-----------4-----4-----------4-----------4--
D|--------------------------------------------------------------------------------------------------------------------------
A|--0-----0-----0-----0-----0-----0-----0-----0-----0-----0-----0-----0-----0-----0-----0-----0-----0-----0-----0-----0-----
E|--------------------------------------------------------------------------------------------------------------------------
Bridge thing??? Repeat twice
E|-----------------------------------------------------4--2--
B|-----------------------------------------------------6--4--
G|-----------9-----------8-----------------6-----------6--4--
D|-----------------6-----------6-----6-----------6-----6--4--
A|---2/7-----------------------------------------------4--2--
E|--------0-----0-----0-----0-----0-----0-----0-----0--------

E|-----------------------------------------------------------0--------
B|-----------2------------2h4-----------5------------4p2-----2--------
G|-----2-----------2--------------2-----------2--------------2-----2--
D|-----------------------------------------------------------2-----1--
A|--0-----0-----0-----0--------0-----0-----0-----0-----------0--------
E|--------------------------------------------------------4-----2-----

Use manual mode to free up cursor. Paste any tab in acousterr tab maker and we'll play it !!!
tabs and chords, guitar tabs, music transcription, music technology, deep learning, music information retrieval, transcribe into tabs & chords, chordify, music renditions, songsterr, reverbnation, tabulature, bollywood chords, ultimate guitar, yousician, guitar lessons, acoustic guitar, electric guitar, guitar tuner, 911 tabs