Guitar Tabs for Planxty Irwin Mus305 Part 2

(/) Slide Up  (\) Slide Down  (h) Hammer On  (p) Pull Off  (b) Bend (r) Release (v) Vibrato (x) Muted

Tabs for Song : 

Song lyrics here
E|-----------------------------0-----2--0--0--------2-----0-----0-----2--------------------------------------
B|-----3-----5--3--3-----5--3--2-----------2--2-----3--------3--0--------3--2-----3-----0-----------0-----2--
G|--2--2-----------2-----------2-----------2-----2--2-----------0-----------2-----------------2-----------2--
D|-----0--0--------0--0-----------------------------0--0--------------------2--2-----2-----2--2--2-----2--2--
A|-----------------------------0--0--------0-----------------------------------------------------------------
E|--------------------------------------------------------------0--0-----------------------------------------

E|-----------------------------------------2-----0-----3-----0--2-----3--5-----------------
B|-----3-----2--0-----2--3--------0--------3--------3--0--------3-----------3-----5--2--3--
G|-----2--------0-----------2--------2--0--2-----------0--------2-----------2-----------2--
D|-----0--0-----------------2--2-----------0--0-----------------0--0--------2-----------0--
A|--------------------------------------------------------------------------0--0-----------
E|--------------3--3-----------------------------------3--3--------------------------------

Song lyrics here
E|--
B|--
G|--
D|--
A|--
E|--

Paste any tab in acousterr's tab maker and we'll play it !!!
Now supports capo and sound effects for vibrato/pull-off/hammer/bends/mutes etc !!! Checkout help section
tabs and chords, guitar tabs, music transcription, music technology, deep learning, music information retrieval, transcribe into tabs & chords, chordify, music renditions, songsterr, reverbnation, tabulature, bollywood chords, ultimate guitar, yousician, guitar lessons, acoustic guitar, electric guitar, guitar tuner, 911 tabs