Guitar Tabs for Place To Be

(/) Slide Up  (\) Slide Down  (h) Hammer On  (p) Pull Off  (b) Bend (r) Release (v) Vibrato (x) Muted


A|--------------------------0--------------------------------------0-----------------0--
C|--------0--------------0--------------------0-----------0-----------------0-----------
B|-----0--------------0--------------------0-----------------0-----------------0--------
F|--4--------0-----------------0--------4--------0--------------2-----------------2-----
C|-----------------0-----------------0-----------------2-----------------2--------------
F|--------------0-----------------0-----------------2-----------------2-----------------

A|-----------------0-----------------0--------------0-----------------------------------0--
C|--------0-----------------0--------------------0--------------------0--------------0-----
B|-----------0-----------------0--------------0--------------------0--------------0--------
F|--------------0-----------------0--------------------0--------4--------0-----------------
C|-----2-----------------2-----------------0-----------------0-----------------0-----------
F|--0-----------------0-----------------0-----------------0-----------------0--------------

A|--------------------------------------0-----------------0-----------------0-----------------0--
C|-----------------0-----------0-----------------0-----------------0-----------------0-----------
B|--------------0-----------------0-----------------0-----------------0-----------------0--------
F|--0--------4--------0--------------2-----------------2-----------------2-----------------2-----
C|--------0-----------------2-----------------2-----------------2-----------------2--------------
F|-----0-----------------2-----------------2-----------------2-----------------2-----------------

A|--------------0-----------------------------------0--------------------------------------0--
C|-----------0--------------------0--------------0--------------------0-----------0-----------
B|--------0--------------------0--------------0--------------------0-----------------0--------
F|-----------------0--------4--------0-----------------0--------4--------0--------------2-----
C|-----0-----------------0-----------------0-----------------0-----------------2--------------
F|--0-----------------0-----------------0-----------------0-----------------2-----------------

A|-----------------0-----------------0-----------------0--------------0-----------------------
C|--------0-----------------0-----------------0--------------------0--------------------0-----
B|-----------0-----------------0-----------------0--------------0--------------------0--------
F|--------------2-----------------2-----------------2--------------------0--------4--------0--
C|-----2-----------------2-----------------2-----------------0-----------------0--------------
F|--2-----------------2-----------------2-----------------0-----------------0-----------------

A|--------------0-----------------------------------------------------------------------------
C|-----------0--------------------0-----------0--------2--------0--------0--------0--------2--
B|--------0--------------------0--------------------------------------------------------------
F|-----------------0--------4--------0-----------4-----------------4-----------------4--------
C|-----0-----------------0-----------------4--------4--------4--------4--------4--------4-----
F|--0-----------------0-----------------4-----------------4-----------------4-----------------

A|-----------------------------------0-----------------------------------0--------------------
C|--------0--------0-----------------------------------0-----------------------------------0--
B|--------------------------0-----------------0-----------------0-----------------0-----------
F|-----------0-----------------2-----------------2-----------------2-----------------0--------
C|-----4--------0--------2--------2--------2--------2--------2--------2--------2--------0-----
F|--4-----------------2-----------------2-----------------2-----------------2-----------------

A|-----------------------------------------------------------------------------------------0--
C|--------0--------2--------0--------0--------0--------2--------0--------0--------------------
B|--------------------------------------------------------------------------------0-----------
F|-----------4-----------------4-----------------4-----------------0-----------------2--------
C|-----4--------4--------4--------4--------4--------4--------4--------0--------2--------2-----
F|--4-----------------4-----------------4-----------------4-----------------2-----------------

A|-----------------------------------0-----------------------------------0--------------------
C|-----------------0-----------------------------------0-----------------------------------0--
B|--------0-----------------0-----------------0-----------------0-----------------0-----------
F|-----------2-----------------0-----------------0-----------------0-----------------0--------
C|-----2--------2--------2--------2--------2--------2--------2--------2--------2--------2-----
F|--2-----------------0-----------------0-----------------0-----------------0-----------------

A|--------------0-----------------------------------0--------------------------------------0--
C|-----------0--------------------0--------------0--------------------0-----------0-----------
B|--------0--------------------0--------------0--------------------0-----------------0--------
F|-----------------0--------4--------0-----------------0--------4--------0--------------2-----
C|-----0-----------------0-----------------0-----------------0-----------------2--------------
F|--0-----------------0-----------------0-----------------0-----------------2-----------------

A|-----------------0-----------------0-----------------0--------------0-----------------------
C|--------0-----------------0-----------------0--------------------0--------------------0-----
B|-----------0-----------------0-----------------0--------------0--------------------0--------
F|--------------2-----------------0-----------------0--------------------0--------4--------0--
C|-----2-----------------2-----------------2-----------------0-----------------0--------------
F|--2-----------------0-----------------0-----------------0-----------------0-----------------

A|--------------0--------------------------------------0-----------------0-----------------0--
C|-----------0--------------------0-----------0-----------------0-----------------0-----------
B|--------0--------------------0-----------------0-----------------0-----------------0--------
F|-----------------0--------4--------0--------------2-----------------2-----------------2-----
C|-----0-----------------0-----------------2-----------------2-----------------2--------------
F|--0-----------------0-----------------2-----------------2-----------------2-----------------

A|-----------------0--------------0-----------------------------------0-----------------------
C|--------0--------------------0--------------------0--------------0--------------------0-----
B|-----------0--------------0--------------------0--------------0--------------------0--------
F|--------------2--------------------0--------4--------0-----------------0--------4--------0--
C|-----2-----------------0-----------------0-----------------0-----------------0--------------
F|--2-----------------0-----------------0-----------------0-----------------0-----------------

A|-----------------0-----------------0-----------------0-----------------0--------------0-----
C|--------0-----------------0-----------------0-----------------0--------------------0--------
B|-----------0-----------------0-----------------0-----------------0--------------0-----------
F|--------------2-----------------2-----------------2-----------------2--------------------0--
C|-----2-----------------2-----------------2-----------------2-----------------0--------------
F|--2-----------------2-----------------2-----------------2-----------------0-----------------

A|--------------------------------0-----------------------------------------------------------
C|--------------0--------------0--------------------0-----------0--------2--------0--------0--
B|-----------0--------------0--------------------0--------------------------------------------
F|--------4--------0-----------------0--------4--------0-----------4-----------------4--------
C|-----0-----------------0-----------------0-----------------4--------4--------4--------4-----
F|--0-----------------0-----------------0-----------------4-----------------4-----------------

A|-----------------------------------------------------------------------0--------------------
C|--------0--------2--------0--------0-----------------0-----------------------------------0--
B|--------------------------------------------0-----------------0-----------------0-----------
F|-----------4-----------------0-----------------2-----------------2-----------------2--------
C|-----4--------4--------4--------0--------2--------2--------2--------2--------2--------2-----
F|--4-----------------4-----------------2-----------------2-----------------2-----------------

A|--------------------------------------------------------------------------------------------
C|-----------------0--------0--------2--------0--------0--------0--------2--------0--------0--
B|--------0-----------------------------------------------------------------------------------
F|-----------0-----------------4-----------------4-----------------4-----------------0--------
C|-----2--------0--------4--------4--------4--------4--------4--------4--------4--------0-----
F|--2-----------------4-----------------4-----------------4-----------------4-----------------

A|-----------------------------------------------------0-----------------------------------0--
C|-----------------0-----------------0-----------------------------------0--------------------
B|--------0-----------------0-----------------0-----------------0-----------------0-----------
F|-----------2-----------------2-----------------0-----------------0-----------------0--------
C|-----2--------2--------2--------2--------2--------2--------2--------2--------2--------2-----
F|--2-----------------2-----------------0-----------------0-----------------0-----------------

A|--------------------------------0-----
C|-----------------0-----------0--------
B|--------0-----------------0-----------
F|-----------0-----------------------0--
C|-----2--------2--------0--------------
F|--0-----------------0-----------------

A|-----------------------------------------------------------------------0-----------------------
C|--------2-----0--------------------0--------------------------------0--------------2-----0-----
B|--------------------------------0-----------------0--------------0-----------------------------
F|-----------0-----0--------0--4---------4\2-----2--------0-----------------0-----------0-----0--
C|-----0-----------------0--------------------0--0-----2--------0-----------------0--------------
F|--0-----------------0------------------0\------------------0-----------------0-----------------

A|-----------------------------------------------------0-----------------------------------------
C|-----------------0--------------------------------0--------------2-----0--------------------0--
B|--------------0-----------------0--------------0-----------------------------------------0-----
F|--------0--4---------4/2-----2--------0-----------------0-----------0-----0--------0--4--------
C|-----0--------------------0--0-----2--------0-----------------0-----------------0--------------
F|--0------------------0/------------------0-----------------0-----------------0-----------------

A|-----------------------------------0--------------------------------------0--------------------
C|-----------------------------------------------------0--------------------------------------0--
B|--------------0--------------0-----------------0-----------------0-----------------0-----------
F|---4/2-----2--------0-----------0-----0-----------0-----0-----------0-----------------0--------
C|--------0--0-----2--------5-----------------3-----------------2--------2--------2--------2-----
F|---0/------------------0-----------------0-----------------0-----------------0-----------------

A|--------------0--------------------------------------0--------------------------------------0--
C|-----------0--------------------0-----------------0--------------------0-----------0-----------
B|--------0--------------------0-----------------0--------------------0-----------------0--------
F|-----------------0--------4--------0--------------------0--------4--------0--------------2-----
C|-----0-----------------0--------------------0-----------------0-----------------2--------------
F|--0-----------------0--------------------0-----------------0-----------------2-----------------

A|-----------------0-----------------0-----------------0--------------0-----------------------
C|--------0-----------------0-----------------0--------------------0--------------------0-----
B|-----------0-----------------0-----------------0--------------0--------------------0--------
F|--------------2-----------------2-----------------2--------------------0--------4--------0--
C|-----2-----------------2-----------------2-----------------0-----------------0--------------
F|--2-----------------2-----------------2-----------------0-----------------0-----------------

A|--------------0--------------------------------------0-----------------0-----------------0--
C|-----------0--------------------0-----------0-----------------0-----------------0-----------
B|--------0--------------------0-----------------0-----------------0-----------------0--------
F|-----------------0--------4--------0--------------2-----------------2-----------------2-----
C|-----0-----------------0-----------------2-----------------2-----------------2--------------
F|--0-----------------0-----------------2-----------------2-----------------2-----------------

A|-----------------0--------------0-----------------------------------0-----------------------
C|--------0--------------------0--------------------0--------------0--------------------0-----
B|-----------0--------------0--------------------0--------------0--------------------0--------
F|--------------2--------------------0--------4--------0-----------------0--------4--------0--
C|-----2-----------------0-----------------0-----------------0-----------------0--------------
F|--2-----------------0-----------------0-----------------0-----------------0-----------------

A|-----------------------------------------------------------------------------------------0--
C|--------0--------2--------0--------0--------0--------2--------0--------0--------------------
B|--------------------------------------------------------------------------------0-----------
F|-----------4-----------------4-----------------4-----------------0-----------------2--------
C|-----4--------4--------4--------4--------4--------4--------4--------0--------2--------2-----
F|--4-----------------4-----------------4-----------------4-----------------2-----------------

A|-----------------------------------0-----------------0--------------------------------------
C|-----------------0--------------------------------------------0--------2--------0--------0--
B|--------0-----------------0-----------------0-----------------------------------------------
F|-----------2-----------------2-----------------0-----------------4-----------------4--------
C|-----2--------2--------2--------2--------2--------0--------4--------4--------4--------4-----
F|--2-----------------2-----------------2-----------------4-----------------4-----------------

A|-----------------------------------------------------0-----------------------------------0--
C|--------0--------2--------0--------0-----------------------------------0--------------------
B|--------------------------------------------0-----------------0-----------------0-----------
F|-----------4-----------------0-----------------2-----------------2-----------------0--------
C|-----4--------4--------4--------0--------2--------2--------2--------2--------2--------2-----
F|--4-----------------4-----------------2-----------------2-----------------0-----------------

A|-----------------------------------0--------------------------------0-----------------------
C|-----------------0-----------------------------------0-----------0--------------------0-----
B|--------0-----------------0-----------------0-----------------0--------------------0--------
F|-----------0-----------------0-----------------0-----------------------0--------4--------0--
C|-----2--------2--------2--------2--------2--------2--------0-----------------0--------------
F|--0-----------------0-----------------0-----------------0-----------------0-----------------

A|--------------0--------------------------------------0-----------------0--------------0--------------
C|-----------0--------------------0--------------------------------------------------0--------------5--
B|--------0--------------------0--------------0-----------------0-----------------0--------------------
F|-----------------0--------4--------0-----------2-----------------0--------------------------0--------
C|-----0-----------------0-----------------2--------2--------2--------2--------0-----------------------
F|--0-----------------0-----------------2-----------------0-----------------0--------------------------

A|--
C|--
B|--
F|--
C|--
F|--
tabs and chords, guitar tabs, music transcription, music technology, deep learning, music information retrieval, transcribe into tabs & chords, chordify, music renditions, songsterr, reverbnation, tabulature, bollywood chords, ultimate guitar, yousician, guitar lessons, acoustic guitar, electric guitar, guitar tuner, 911 tabs