Guitar Tabs for Pisei Na Terra Fria

PISEI NA TERRA FIRA NELA EU SENTI CALOR
E|-----------------------------------------------------------------------------------------------
B|------------------ ----------------------------------------------------------------------------
G|--------2-----2-----2-----------------------------------0--------------------------------------
D|--2-----------------------------------------------2-----------0-----0-----------0--------------
A|-----------------------0--0--2--3-----0-----3-----------------------------4--------------------
E|-----------------------------------------------------------------------------------------------

ELA É QUEM ME DÁ O PÃO A MINHA MÃE QUE NOS CRIOU
E|--------------------------------------------------------------------------------------
B|--------------------------------------------------------------------------------------
G|-----------------2-----2-----2--------------------------------------------2--2--2--2--
D|-----------0-----------------------2-----------------------2--------------------------
A|--0--2--3-----------------------------------3--0-----3--------------------------------
E|--------------------------------------------------------------------------------------
tabs and chords, guitar tabs, music contests, music covers, songsterr, reverbnation, renditions, tabulature, bollywood chords, ultimate guitar, yousician, guitar lessons, torrins, fender, gibson, acoustic guitar, electric guitar, youtube covers, gootar, guitar tuner, A-Z tabs, 911 tabs