Guitar Tabs for Pirates Of The Caribbean - Jolly Sailor Bold

Verse 1:
Upon one summmer's morning, I carelessly did stray,
E|-----------------------------------------------------
B|-----------------------------------------------------
G|--1--3--4--1--1--1-----------------1--3--3--4--------
D|--------------------2--1-----1--1--------------------
A|-----------------------------------------------------
E|-----------------------------------------------------
Down by the Walls of Wapping, where I met a sailor gay,
E|--------------------------------------------------
B|--------------------------------------------------
G|--1--3--4--1--1--------------------0--3--0--1-----
D|-----------------2--1-----1--1--1-----------------
A|--------------------------------------------------
E|--------------------------------------------------
Conversing with a young lass, who seem'd to be in pain
E|-----------------------------------------------------
B|-----------4--4--4--5--4-----------------------------
G|--1--3--4-----------------4--3--1--1--3--3--3--4-----
D|-----------------------------------------------------
A|-----------------------------------------------------
E|-----------------------------------------------------
Saying WIlliam, when you go, I fear you will ne'er return again
E|----------------------------------------------------
B|----------------------------------------------------
G|--1--3--4--1--1--1--------------------0--3--0--1---- 
D|--------------------2--1-----1--1--1----------------
A|----------------------------------------------------
E|----------------------------------------------------

Chorus:
My heart is pierced by Cupid, I disdain all glittering gold
E|-----------------------------------------------------
B|-----------4--4--4--5--4-----------------------------
G|--1--3--4-----------------4--3--1--1--3--3--3--4-----
D|-----------------------------------------------------
A|-----------------------------------------------------
E|-----------------------------------------------------
There is nothing can console me but my jolly sailor bold
E|----------------------------------------------------
B|----------------------------------------------------
G|--1--3--4--1--1--1--------------------0--3--0--1---- 
D|--------------------2--1-----1--1--1----------------
A|----------------------------------------------------
E|----------------------------------------------------


Verse 2:
His hair it hangs in ringlets, his eyes as black as coal,
E|-----------------------------------------------------
B|-----------------------------------------------------
G|--1--3--4--1--1--1-----------------1--3--3--4--------
D|--------------------2--1-----1--1--------------------
A|-----------------------------------------------------
E|-----------------------------------------------------
May happiness attend him wherever he may go,
E|--------------------------------------------------
B|--------------------------------------------------
G|--1--3--3--4--1--1--1-----------------0--3--0--1--
D|-----------------------2--1-----1--1--------------
A|--------------------------------------------------
E|--------------------------------------------------
From Tower Hill to Blackwall, I'll wander, weep and moan,
E|-----------------------------------------------------
B|-----------4--4--4--5--4-----------------------------
G|--1--3--4-----------------4--3--1--1--3--3--3--4-----
D|-----------------------------------------------------
A|-----------------------------------------------------
E|-----------------------------------------------------
All for my jolly sailor until he sails home.
E|----------------------------------------------------
B|----------------------------------------------------
G|--1--3--4--1--1--1--------------------0--3--0--1---- 
D|--------------------2--1-----1--1--1----------------
A|----------------------------------------------------
E|----------------------------------------------------

Chorus:
My heart is pierced by Cupid, I disdain all glittering gold
E|-----------------------------------------------------
B|-----------4--4--4--5--4-----------------------------
G|--1--3--4-----------------4--3--1--1--3--3--3--4-----
D|-----------------------------------------------------
A|-----------------------------------------------------
E|-----------------------------------------------------
There is nothing can console me but my jolly sailor bold
E|----------------------------------------------------
B|----------------------------------------------------
G|--1--3--4--1--1--1--------------------0--3--0--1---- 
D|--------------------2--1-----1--1--1----------------
A|----------------------------------------------------
E|----------------------------------------------------

Verse 3:
My father is a merchant - The truth I now will tell, 
E|-----------------------------------------------------
B|-----------------------------------------------------
G|--1--3--4--1--1--1-----------------1--3--3--4--------
D|--------------------2--1-----1--1--------------------
A|-----------------------------------------------------
E|-----------------------------------------------------
And in great London City in opulence doth dwell,
E|--------------------------------------------------
B|--------------------------------------------------
G|--1--3--3--4--1--1--1-----------------0--3--0--1--
D|-----------------------2--1-----1--1--------------
A|--------------------------------------------------
E|--------------------------------------------------
His fortune doth exceed three-hundred-thousand gold,
E|-----------------------------------------------------
B|-----------4--4--4--5--4-----------------------------
G|--1--3--4-----------------4--3--1--1--3--3--3--4-----
D|-----------------------------------------------------
A|-----------------------------------------------------
E|-----------------------------------------------------
And he frowns upon his daughter, 'cause she loves a sailor bold
E|----------------------------------------------------
B|----------------------------------------------------
G|--1--3--4--1--1--1--------------------0--3--0--1---- 
D|--------------------2--1-----1--1--1----------------
A|----------------------------------------------------
E|----------------------------------------------------

Chorus (Maybe?):
A fig for his riches, his merchandize, and gold,
E|-----------------------------------------------------
B|-----------4--4--4--5--4-----------------------------
G|--1--3--4-----------------4--3--1--1--3--3--3--4-----
D|-----------------------------------------------------
A|-----------------------------------------------------
E|-----------------------------------------------------
True love is grafted in my heart; give me my sailor bold:
E|----------------------------------------------------
B|----------------------------------------------------
G|--1--3--4--1--1--1--------------------0--3--0--1---- 
D|--------------------2--1-----1--1--1----------------
A|----------------------------------------------------
E|----------------------------------------------------

Chorus:
My heart is pierced by Cupid, I disdain all glittering gold
E|-----------------------------------------------------
B|-----------4--4--4--5--4-----------------------------
G|--1--3--4-----------------4--3--1--1--3--3--3--4-----
D|-----------------------------------------------------
A|-----------------------------------------------------
E|-----------------------------------------------------
There is nothing can console me but my jolly sailor bold
E|----------------------------------------------------
B|----------------------------------------------------
G|--1--3--4--1--1--1--------------------0--3--0--1---- 
D|--------------------2--1-----1--1--1----------------
A|----------------------------------------------------
E|----------------------------------------------------

Chorus (Maybe? part 2):
Should he return in pov'rty, from o'er the ocean far,
E|-----------------------------------------------------
B|-----------4--4--4--5--4-----------------------------
G|--1--3--4-----------------4--3--1--1--3--3--3--4-----
D|-----------------------------------------------------
A|-----------------------------------------------------
E|-----------------------------------------------------
To my tender bosom, I'll fondly press my jolly tar.
E|----------------------------------------------------
B|----------------------------------------------------
G|--1--3--4--1--1--1--------------------0--3--0--1---- 
D|--------------------2--1-----1--1--1----------------
A|----------------------------------------------------
E|----------------------------------------------------

Verse 4:
My sailor is as smiling as the pleasant month of May,
E|-----------------------------------------------------
B|-----------------------------------------------------
G|--1--3--4--1--1--1-----------------1--3--3--4--------
D|--------------------2--1-----1--1--------------------
A|-----------------------------------------------------
E|-----------------------------------------------------
And often we have wandered through Ratcliffe Highway,
E|--------------------------------------------------
B|--------------------------------------------------
G|--1--3--3--4--1--1--1-----------------0--3--0--1--
D|-----------------------2--1-----1--1--------------
A|--------------------------------------------------
E|--------------------------------------------------
Many a pretty blooming young girl we diid behold,
E|--------------------------------------------------
B|-----------4--4--4--5--4--------------------------
G|--1--3--4-----------------4--3--1--1--3--3--3--4--
D|--------------------------------------------------
A|--------------------------------------------------
E|--------------------------------------------------
Reclining on the bosom of her jolly sailor bold.
E|----------------------------------------------------
B|----------------------------------------------------
G|--1--3--4--1--1--1--------------------0--3--0--1---- 
D|--------------------2--1-----1--1--1----------------
A|----------------------------------------------------
E|----------------------------------------------------

Chorus:
My heart is pierced by Cupid, I disdain all glittering gold
E|-----------------------------------------------------
B|-----------4--4--4--5--4-----------------------------
G|--1--3--4-----------------4--3--1--1--3--3--3--4-----
D|-----------------------------------------------------
A|-----------------------------------------------------
E|-----------------------------------------------------
There is nothing can console me but my jolly sailor bold
E|----------------------------------------------------
B|----------------------------------------------------
G|--1--3--4--1--1--1--------------------0--3--0--1---- 
D|--------------------2--1-----1--1--1----------------
A|----------------------------------------------------
E|----------------------------------------------------

Verse 5:
My name it is Maria, a merchant's daughter fair,
E|-----------------------------------------------------
B|-----------------------------------------------------
G|--1--3--4--1--1--1-----------------1--3--3--4--------
D|--------------------2--1-----1--1--------------------
A|-----------------------------------------------------
E|-----------------------------------------------------
And I have left my parents and three thousand pounds a year 
E|--------------------------------------------------
B|--------------------------------------------------
G|--1--3--3--4--1--1--1-----------------0--3--0--1--
D|-----------------------2--1-----1--1--------------
A|--------------------------------------------------
E|--------------------------------------------------
Come all you pretty fair maids, whoever you may be
E|--------------------------------------------------
B|-----------4--4--4--5--4--------------------------
G|--1--3--4-----------------4--3--1--1--3--3--3--4--
D|--------------------------------------------------
A|--------------------------------------------------
E|--------------------------------------------------
Who love a jolly sailor bold that ploughs the raging sea
E|----------------------------------------------------
B|----------------------------------------------------
G|--1--3--4--1--1--1--------------------0--3--0--1---- 
D|--------------------2--1-----1--1--1----------------
A|----------------------------------------------------
E|----------------------------------------------------
While up aloft, in storm or gale, from me his absense mourn,
E|-----------------------------------------------------
B|-----------------------------------------------------
G|--1--3--4--1--1--1-----------------1--3--3--4--------
D|--------------------2--1-----1--1--------------------
A|-----------------------------------------------------
E|-----------------------------------------------------
And firmly pray, arrive the day, he home will safe return. 
E|--------------------------------------------------
B|--------------------------------------------------
G|--1--3--3--4--1--1--1-----------------0--3--0--1--
D|-----------------------2--1-----1--1--------------
A|--------------------------------------------------
E|--------------------------------------------------

Chorus:
My heart is pierced by Cupid, I disdain all glittering gold
E|--------------------------------------------------
B|-----------4--4--4--5--4--------------------------
G|--1--3--4-----------------4--3--1--1--3--3--3--4--
D|--------------------------------------------------
A|--------------------------------------------------
E|--------------------------------------------------
There is nothing can console me but my jolly sailor bold
E|----------------------------------------------------
B|----------------------------------------------------
G|--1--3--4--1--1--1--------------------0--3--0--1---- 
D|--------------------2--1-----1--1--1----------------
A|----------------------------------------------------
E|----------------------------------------------------
My heart is pierced by Cupid, I disdain all glittering gold
E|--------------------------------------------------
B|-----------4--4--4--5--4--------------------------
G|--1--3--4-----------------4--3--1--1--3--3--3--4--
D|--------------------------------------------------
A|--------------------------------------------------
E|--------------------------------------------------
There is nothing can console me but my jolly sailor bold
E|----------------------------------------------------
B|----------------------------------------------------
G|--1--3--4--1--1--1--------------------0--3--0--1---- 
D|--------------------2--1-----1--1--1----------------
A|----------------------------------------------------
E|----------------------------------------------------


tabs and chords, guitar tabs, music transcription, music technology, deep learning, music information retrieval, transcribe into tabs & chords, chordify, music renditions, songsterr, reverbnation, tabulature, bollywood chords, ultimate guitar, yousician, guitar lessons, acoustic guitar, electric guitar, guitar tuner, 911 tabs