Bass Tabs for Pinky

(/) Slide Up  (\) Slide Down  (h) Hammer On  (p) Pull Off  (b) Bend (r) Release (v) Vibrato (x) Muted

Tabs for Song : 
BPM : 200

Song lyrics here
G|--------------------------------------------------------------------------------------------------------
D|-----------------------------------------------4--5-----0-----1--------------1--------1-----------------
A|-----2--1--0--------2-----------------1--5--------------------------1--4--------1--------------0--1--3--
E|--0--------------3-----0--1-----2--3-----------------3-----------3-----------------3--------3-----------

G|-----------------------1-----------1-----------------------------------0--------0-----------------------
D|--1--------0--1-----------4--1--------1-----1-----------------0--------------0-----0--1-----------------
A|--------1-----------------------------------------------0--1--------------1--------------------0--1--3--
E|-----3--------------4--------------------4-----4-----3--------------------------------------3-----------

G|-----------------------------------------------------------------------------------4--6--7--8-----
D|--1--------1-----------------------1--------0--------------------------------0--2-----------------
A|-----1-----------------1--3--1--------1--0-----------0--1--3--------------------------------------
E|--------3--------3--3-----------------------------3--------------0--2-----------------------------

G|--
D|--
A|--
E|--

Song lyrics here
G|--
D|--
A|--
E|--

Paste any tab in acousterr's tab maker and we'll play it !!!
Now supports capo and sound effects for vibrato/pull-off/hammer/bends/mutes etc !!! Checkout help section
tabs and chords, guitar tabs, music transcription, music technology, deep learning, music information retrieval, transcribe into tabs & chords, chordify, music renditions, songsterr, reverbnation, tabulature, bollywood chords, ultimate guitar, yousician, guitar lessons, acoustic guitar, electric guitar, guitar tuner, 911 tabs