Guitar Tabs for Pink Panther

(/) Slide Up  (\) Slide Down  (h) Hammer On  (p) Pull Off  (b) Bend (r) Release (v) Vibrato (x) Muted

Tabs for Song : 

Song lyrics here
E|-----------------------------------------------------------------------
B|--------------------------------1--0--------0--------------------------
G|--------------0--------------0-----------0-----3-----2--0--------------
D|--1--2-----4--------1--2--4-----------2--------------------2--0--2-----
A|-----------------------------------------------------------------------
E|-----------------------------------------------------------------------

E|--------------------------------------------0--------0--------------------------
B|--------------------------------1--0-----0-----4--------3--0--------------------
G|--------------0--------------0--------0-----------------------2--0--------------
D|--1--2-----4--------1--2--4-----------------------------------------2--1--2-----
A|--------------------------------------------------------------------------------
E|--------------------------------------------------------------------------------

Song lyrics here
E|-----------------------------------
B|-----------------------------------
G|--2--3--2--3--2--3--0--------------
D|-----------------------2--0--2--2--
A|-----------------------------------
E|-----------------------------------

E|--
B|--
G|--
D|--
A|--
E|--

Paste any tab in acousterr's tab maker and we'll play it !!!
Now supports capo and sound effects for vibrato/pull-off/hammer/bends/mutes etc !!! Checkout help section
tabs and chords, guitar tabs, music transcription, music technology, deep learning, music information retrieval, transcribe into tabs & chords, chordify, music renditions, songsterr, reverbnation, tabulature, bollywood chords, ultimate guitar, yousician, guitar lessons, acoustic guitar, electric guitar, guitar tuner, 911 tabs