Bass Tabs for Pink Floyd - What Do You Want From Me?

Pink Floyd - What Do You Want From Me?

Intro & Verse
G|--------------------------
D|--------------------------
A|-----7--------------------
E|--0-----7--0--7--8--8--7--

Pre-Chorus
G|---------------------------------
D|---------------------------------
A|---------------------------------
E|--5-----5--5--7--5-----5--5--12\2

Chorus
G|-------------------------------------------------------------
D|-------------------------------------------------------------
A|----2-----------------------------------------3--2--0--------
E|-2-----2--2--4--5--7--8--8--8--10-8--8--8--------------3--0--

Tension
G|--------------------------------------------------------------------
D|--------------------------------------------------------------------
A|--4-----4--4--4--------6--------------------2--2--2-----7--------(2-4)-
E|-----4--------------4-----4--4---4/7-----2-----------5-----5--5-----

Chorus Post-Tension
G|--------------------------------------------------------------------
D|--------------------------------------------------------------------
A|-----------2--------------------------------------3--2--0--------
E|--5--4--2-----2--2--2--4--5--7--8--8--8--10-8--8----------3--0--




tabs and chords, guitar tabs, music contests, music covers, songsterr, reverbnation, renditions, tabulature, bollywood chords, ultimate guitar, yousician, guitar lessons, torrins, fender, gibson, acoustic guitar, electric guitar, youtube covers, gootar, guitar tuner, A-Z tabs, 911 tabs