Bass Tabs for Pink Floyd - Shine On You Crazy Diamond

Pink Floyd - Shine On You Crazy Diamond

Intro
G|-----------------------------------------------------------------------------------------
D|------------------------3h5--------------------------------------------------------------
A|--3-----1--3--1--3-----------3-----1--3--3-----------------------------------------------
E|------------------------------------------------1/3-----1--3--3-----5--6--3-----1--3--3--

G|--------------------------------------------------------------------------------------
D|--------------------------------------------------------------------------------------
A|-----------3--4--5--6-----5--6--5--6--------6--5-----3--5--5--------------------------
E|--3--5--6--------------------------------6---------------------------1h3-----1--3--3--

G|--------------------------------------------------------------------------------------
D|------------------------3h5--3--------------------------------------------------------
A|--------------------------------5---------------------------------------------3h5-----
E|--5--6--3-----1--3--3--------------3-----1--3--3-----5--6--3-----1--3--3-----------3--

G|--------------------------------------------------------------------------------------------------
D|--------------------------------------------------------------------------------------5-----------
A|--------------------------------------1--5--3-----1--3--3-----5--6--3-----1--3--3---------1h3--1--
E|--1--3--3-----5--6--3-----1--3--3-----------------------------------------------------------------


G|--------------------------------------------------------------------------------------------------
D|-----------------------------------------------------------------------------8--------------------
A|--------------------------------------------------3--4--5--6-----5--6--6--------6--5-----3--5--5--
E|--3-----1--3--3-----6--3-----1--3--3-----3--5--6--------------------------------------------------

G|------------------5h7--------------------------------------------------7--
D|--------------7--------5-----4-----3-----2--------------------------------
A|--------3--5-----------------------------------6-----5-----6-----5--------
E|---3h5--------------------------------------------------------------------

G|-----------------------------------------------------------------------------------------
D|-----------------------------------------------------------------------------------------
A|---------------------------------------------3h5-----------------------------------------
E|--3-----1--3--3-----5--6--3-----1--3--3-----------3-----1--3--3-----5--6--3-----1--3--3--

G|--------------------------------------------------------------------------------------
D|--------------------------------------------------------------------------------------
A|--------5--3-----1--3--3------1/5--3-----1--3--3-----3--5-----------------------------
E|--3--6-----------------------------------------------------3-----1--3--3-----5--6--3--

G|--------------------------------------------------------------------------------------------
D|-----------------------------------------------------------------------------------------5--
A|-----------------------3--4--5--6--------6--5-----------6--------6--5------3h5--------5-----
E|--1--3--3-----3--5--6-----------------6-----------3--5--------6------------------3h5--------

G|--------------------------------
D|-----5--------------------5-----
A|--5-----3-----3--5-----------5~~
E|--------------------3-----------

Voice Part
G|-----------------------------------------------------------------------------------------------------
D|-----------------------5-----------------------------------------------------------------------------
A|--------------------5-----------------1-----1--3--5--6-----5-----3-----1---------3h5--3--------------
E|--3-----1--3--3-----------2-----2--2-----------------------------------------1-----------1-----1--2--

G|--------------------------------------------------------------------------------------------
D|-----------------------5-----------------------------------------------------------3--------
A|--------------------5-----------------1-----1--3--5--6-----5-----3-----1--------------3-----
E|--3-----1--3--3-----------2-----2--2-----------------------------------------1-----------1--

G|--------------------------------------8-----------------------------------------------------------
D|-----------------------------------------8--------8--------8--------8-----------8-----------------
A|--------------------------3-----6-----------6--7--------7-----7--8-----8-----8--------5--8--5--9--
E|--1--2--3-----2-----1-----------------------------------------------------6-----------------------

Slow Sax Part
G|-----------------------------------------------------------------------------------------
D|-----------------------------------------------------------------------------------------
A|-----------------------------------------------------------------------------------------
E|--3-----1--3--3-----5--6--3-----1--3--3---------1h3-----1--3--3-----5--6--3-----1--3--3--

G|-----------------------------------------------------------------------------------------
D|--------------------------------------------5--------------------------------------------
A|--0--1--3-----1--3--3---3h5--3-----1--3--3-----3-----------------------------------------
E|--------------------------------------------------3-----1--3--3-----5--6--3-----1--3--3--

G|--------------------------------------------------------------------------
D|--------------------------------------------------------------------------
A|-----------3--4--5--6--------6--6-----6-----6--5--------5--5--------------
E|--3--5--6-----------------6--------------6-----------5-----------6--6--5--

Fast Sax Part
G|-----------------------------------------------------------------
D|-----------------------------------------------------------------
A|-----------------------------------------------------------------
E|--3--3-----3--3--1--3--3-----3--3--5--6--3--3-----3--3--1--3--3--

G|--------------------------------------------------------------------------------------
D|--------------------------------------------------------------------------------------
A|--3--3-----3--3--5--6--3--3-----3--3--1-----------------------------------------------
E|-----------------------------------------3--3-----3--3--5--6--3--3-----3--3--1--3--3--
tabs and chords, guitar tabs, music contests, music covers, songsterr, reverbnation, renditions, tabulature, bollywood chords, ultimate guitar, yousician, guitar lessons, torrins, fender, gibson, acoustic guitar, electric guitar, youtube covers, gootar, guitar tuner, A-Z tabs, 911 tabs