Bass Tabs for Pink Floyd - Confortably Numb

Pink Floyd - Confortably Numb

Intro
G|--------------------------
D|--------------------------
A|--------------------------
E|--7-----7--7-----7-----7--

Verse
G|--------------------------------------------------
D|-------------------------------------------------- 3x
A|--------------------------------------------------
E|--7-----7--7-----5-----5-----3--2--0-----7-----7--

1st Chorus
G|-------------------------------------------------------------------------------------
D|-------------------------------------------------------------------------------------
A|--5-----5\-----------5-----5\-----------2--3-----3--------------2--3-----3-----------
E|------------5------------------5-----------------------3--------------------3-----3--

G|----------------------------------------------------------------------------------------------------
D|----------------------------------------------------------------------------5-----------------------
A|--5-----5\--------5-----5\-----------2--3--3-----------------2--3--3-----------------2--3-----5--5--
E|-------------5--------------5--------------------3-----3--------------3--------5--5--------3--------

1st Guitar Solo
G|--------------------------------------------------------------
D|--------------------------------------------------------------
A|--5-----5--------------------0---2/4--5-----5-----------------
E|--------------5-----5--5--------------------------5-----5--5--

G|--------------------------------------------------------------
D|--------------------------------------5-----------------------
A|-----2--3-----3-----------5--------5-----3-----3--------------
E|--------------------3--------3--------------------3-----3--3--

G|-----------------------------------------
D|-----------------------------------------
A|--------------2--3---3h5-----5-----5--5--
E|--5-----5-----------------3--------------

2nd Chorus
G|-----------------------------------------------------------------------------------------
D|-----------------------------------------------------------------------------------------
A|--5-----5\-----------5-----5\-----------2--3--3-3h5----------------2--3--3-3h5-----------
E|------------5------------------5-----------------------3---3-----------------------3----3

G|-----------------------------------------------------------------------------
D|-----------------------------------------------------------------------------
A|--5-----5\-----------5-----5\-----------2--3-3h5-------------2--3--3---------
E|------------5------------------5--------------------3---3--------------3----3

G|--------------------------------------------
D|-----7--------------------------------------
A|--------2--3-----------5--5--5--5--5--5---5\
E|--5--------------3--------------------------

2nd Guitar Solo
G|-----------------------------------------------------
D|-----------------------------------------------------
A|-----------------------------------------------5-----
E|--7--7-----5-----5-----3--2--0-----7-----7--7-----7--

G|--------------------------------------------------------
D|--------------------------------------------------------
A|--------------------------------------------------------
E|--7-----7-----5-----5--5-----3-----2--0-----7-----7--7--

G|--------------------------------------------------------
D|--------------------------------------------------------
A|--------------------------------------------------------
E|--7-----7--7--6--5-----5--5-----3-----2--0-----7-----7--

G|--------------------------------------------------------
D|--------------------------------------------------------
A|--------------------------------------------------------
E|--7-----7--7-----5-----5--5-----3-----2--0-----7-----7--

G|--------------------------------------------------
D|--------------------------------------------------
A|--------------------------------------------------
E|--7-----7-----5-----5-----3-----2--0-----7-----7--

G|-----------------------------------------------------------------------------------------------
D|--------9--9--------9--9--------7--7--------7--7--------5--------------------9--------9--7-----
A|--------------------------------------------------------------------------------------------9--
E|--7--7--------7--7--------5--5--------5--5--------3--3-----2--0--------7--7-----7--7-----------

G|--------------------------------------------------------------------------------------
D|--------9--------9--------7--------7--------5--------------------9--------9--7--------
A|--------------------------------------------------------------------------------9-----
E|--7--7-----7--7-----5--5-----5--5-----3--3-----2--0--------7--7-----7--7-----------7~~~~~~~~



tabs and chords, guitar tabs, music transcription, music technology, deep learning, music information retrieval, transcribe into tabs & chords, chordify, music renditions, songsterr, reverbnation, tabulature, bollywood chords, ultimate guitar, yousician, guitar lessons, acoustic guitar, electric guitar, guitar tuner, 911 tabs