Bass Tabs for Pink Floyd - Another Brick In The Wall Pt.2

Pink Floyd - Another Brick In The Wall Pt.2

Verse
G|-----------------------------------------------------------------------------------
D|-----------------------------------------------------------------------------------
A|-----------------------------3--5-----5-----5--0--3--------3--5-----5-----5--0--3--
D|--0--------------------0-----------------------------0-----------------------------

G|--------------------------------------------------------------
D|--------------------------------------------------------------
A|--------3--5-----5-----5--0--3--------3--5-----5-----5--0--3--
D|--0-----------------------------0-----------------------------

Pre-Chorus
G|--------------------------------------------------------------------------------------
D|--------------------------------------------------------------------------------------
A|------------------------------------------------------5-----3--5-----5----5-----0-----
D|--5-----------5-----------5-----5-----5--5--5---5/---------------------------------5--

Chorus
G|------------------------------------------------------------------------------
D|------------------------------------------------------------------------------
A|--------------3--------5-------3--5-----5-----5--0--------------3--------5----
D|--3----------------------0--------------------------5--3-------------------0--

Guitar Solo
G|-----------------------------------------------------------
D|-----------------------------------------------------------  7x
A|--5-----3--5-----5-----5--0--3--------3--5-----5-----3--5--
D|--------------------------------0--------------------------

G|--------------------------------------------
D|--------------------------------------------
A|--5-----3--5-----5-----3--5-----5-----3--5--
D|--------------------------------------------

tabs and chords, guitar tabs, music transcription, music technology, deep learning, music information retrieval, transcribe into tabs & chords, chordify, music renditions, songsterr, reverbnation, tabulature, bollywood chords, ultimate guitar, yousician, guitar lessons, acoustic guitar, electric guitar, guitar tuner, 911 tabs