Picking Exercises!! - Guitar Tabs

(/) Slide Up  (\) Slide Down  (h) Hammer On  (p) Pull Off  (b) Bend (r) Release (v) Vibrato (x) Muted




E|-----------------------------------------------------------------------------0--1--2--3--4--
B|--------------------------------------------------------------0--1--2--3--4-----------------
G|-----------------------------------------------0--1--2--3--4--------------------------------
D|--------------------------------0--1--2--3--4-----------------------------------------------
A|-----------------0--1--2--3--4--------------------------------------------------------------
E|--0--1--2--3--4-----------------------------------------------------------------------------

E|--4--3--2--1--0-----------------------------------------------------------------------------
B|-----------------4--3--2--1--0--------------------------------------------------------------
G|--------------------------------4--3--2--1--0-----------------------------------------------
D|-----------------------------------------------4--3--2--1--0--------------------------------
A|--------------------------------------------------------------4--3--2--1--0-----------------
E|-----------------------------------------------------------------------------4--3--2--1--0--

E|--------------------------------0--3--------3--0--------------------------------
B|--------------------------0--3--------------------3--0--------------------------
G|--------------------0--2--------------------------------2--0--------------------
D|--------------0--2--------------------------------------------2--0--------------
A|--------0--2--------------------------------------------------------2--0--------
E|--0--3--------------------------------------------------------------------3--0--

E|--------------------------------5--8--------8--5--------------------------------
B|--------------------------5--8--------------------8--5--------------------------
G|--------------------5--7--------------------------------7--5--------------------
D|--------------5--7--------------------------------------------7--5--------------
A|--------5--7--------------------------------------------------------7--5--------
E|--5--8--------------------------------------------------------------------8--5--


tabs and chords, guitar tabs, music transcription, music technology, deep learning, music information retrieval, transcribe into tabs & chords, chordify, music renditions, songsterr, reverbnation, tabulature, bollywood chords, ultimate guitar, yousician, guitar lessons, acoustic guitar, electric guitar, guitar tuner, 911 tabs