Finger Picking Exercise Em Asus2 - Guitar Tabs

(/) Slide Up  (\) Slide Down  (h) Hammer On  (p) Pull Off  (b) Bend (r) Release (v) Vibrato (x) Muted


E|-----------------------------------------------------------------------------------
B|--------------------------------0-----------------------------------------0--------
G|-----------0-----------------2-----2-----------------0-----------------2-----2-----
D|--------2-----2-----------2-----------2-----------2-----2-----------2-----------2--
A|-----2-----------2-----0-----------------------2-----------2-----0-----------------
E|--0-----------------------------------------0--------------------------------------
   Em                   Asus2                 Em                   Asus2


E|--------------------------------------------------------
B|-----------------------------------------0-----------0--
G|-----------0-----------0-----------2-----------2--------
D|-----2-----------2--------------------2-----------2-----
A|--------2-----------2-----------0-----------0-----------
E|--0-----------0-----------------------------------------
    Em          Asus2            Em           Asus2


E|-----------------------------------------------------------
B|-----------------------0-----------------------------0-----
G|--------0--------------2--------------0--------------2-----
D|--------2-----------2-----2-----------2-----------2-----2--
A|-----2-----2-----0-----------------2-----2-----0-----------
E|--0-----------------------------0--------------------------
   Em             Asus2           Em            Asus2
tabs and chords, guitar tabs, music transcription, music technology, deep learning, music information retrieval, transcribe into tabs & chords, chordify, music renditions, songsterr, reverbnation, tabulature, bollywood chords, ultimate guitar, yousician, guitar lessons, acoustic guitar, electric guitar, guitar tuner, 911 tabs