Guitar Tabs for Peter Gunn

(/) Slide Up  (\) Slide Down  (h) Hammer On  (p) Pull Off  (b) Bend (r) Release (v) Vibrato (x) Muted

Tabs for Song : Peter Gunn 

Song lyrics here
E|--------------------------------------------------------------------------------------------------
B|--------------------------------------------------------------------------------------------------
G|--------------------------------------------------------------------------------------------------
D|--------------------------------------------------------------------------------------------------
A|--------------------------------------------------------------------------------------------------
E|--0--0--2--0--3--0--5--4--0--0--2--0--3--0--5--4--0--0--2--0--3--0--5--4--0--0--2--0--3--0--5--4--

E|--------------------------------------------------------------------------------------------------
B|--------------------------------------------------------------------------------------------------
G|--------------------------------------------------------------------------------------------------
D|--------------------------------------------------------------------------------------------------
A|--0--0--2--0--3--0--5--4--0--0--2--0--3--0--5--4--------------------------------------------------
E|--------------------------------------------------0--0--2--0--3--0--5--4--0--0--2--0--3--0--5--4--

E|--2-----------------------0-----------------------0---------
B|--4-----------------------2-----------------------0--------
G|--4-----------------------2-----------------------1--------
D|--4-----------------------2-----------------------2--------
A|--2-----------------------0-----------------------2--------
E|--------------------------------------------------0--------

Song lyrics here
E|--
B|--
G|--
D|--
A|--
E|--

Paste any tab in acousterr's tab maker and we'll play it !!!
Now supports capo and sound effects for vibrato/pull-off/hammer/bends/mutes etc !!! Checkout help section
tabs and chords, guitar tabs, music transcription, music technology, deep learning, music information retrieval, transcribe into tabs & chords, chordify, music renditions, songsterr, reverbnation, tabulature, bollywood chords, ultimate guitar, yousician, guitar lessons, acoustic guitar, electric guitar, guitar tuner, 911 tabs