Guitar Tabs for Perpetual Motion - Suzuki

"Perpetual Motion" - S. Suzuki

Use the tips of your fingers to play! Try to only use your pointer finger for 2, middle finger for 3, and ring finger for 4. 
(This is called playing in second position)
E|--------------------------------------------------------------------------------------------------------------------------------
B|-----------------------------------------------------------------3--2--0--0--2--0--------0--------------------------------------
G|--------------------0--0-----0--2-----0--------2--2--------------------------------2--2-----2--0--0-----------2--2--------------
D|--0--2--4--4--2--4--------4--------4-----2--------------0--0-----------------------------------------4--2--------------0--0-----
A|--------------------------------------------------------------------------------------------------------------------------------
E|--------------------------------------------------------------------------------------------------------------------------------

Song lyrics here
E|-----------------------------------------------------------------------------------------------------------------
B|--------------------------------------0--2--3--3-----------------------------------------------------------------
G|--------------0-----------2-----0--2--------------------------------------0--0-----0--2-----0-----2--2-----------
D|--4--0--2--2-----2--4--4-----4--------------------------0--2--4--4--2--4--------4--------4-----2-----------0--0--
A|-----------------------------------------------------------------------------------------------------------------
E|-----------------------------------------------------------------------------------------------------------------

Once you have it under your fingers, "double pick" it. 
Double each note by striking the string down once and up once with your pick.
tabs and chords, guitar tabs, music transcription, music technology, deep learning, music information retrieval, transcribe into tabs & chords, chordify, music renditions, songsterr, reverbnation, tabulature, bollywood chords, ultimate guitar, yousician, guitar lessons, acoustic guitar, electric guitar, guitar tuner, 911 tabs