Guitar Tabs for Perfect (non-full)

(/) Slide Up  (\) Slide Down  (h) Hammer On  (p) Pull Off  (b) Bend (r) Release (v) Vibrato

Tabs for Song : 
E|-----------------------------------------------------------------------------------
B|--------------------0-----------------0--------0--------0-----------------0--------
G|--------0--0-----0-----0-----------0-----2--0--------0-----0-----------0-----0-----
D|--0--2--------0-----------0-----0-----------------2-----------2-----2-----------2--
A|-----------------------------------------------------------------------------------
E|-----------3-----------------3-----------------0-----------------0-----------------

E|-----------------------------------------------------------------
B|-----0--0--0-----------------------0-----------------------------
G|--2-----------2--0--0--------0--2-----2--------2-----------------
D|--------------------------2-----------0--------0-----0--0--------
A|--3--------3--------3--------------------------------------------
E|-----------------------------------------------------------------

E|-----------------------------------------------------------------------
B|--0--------0--------0-----------------3-----0--------------------------
G|-----2--0--------0-----0-----------0-----------2--0--0--0--------------
D|--------------0-----------0-----0--------------------------------------
A|-----------------------------------------------------------------------
E|-----------3-----------------3-----------------0--------0-----0--0-----

E|--------------------------------------------------------------------
B|-----------0--1-----1--0-----0-----------------0--------------------
G|-----0--2------------------------2r0-----0--2-----2--------2--------
D|--2--------------2--------2-----------------------0--------0-----0--
A|--------------3-----------------------------------------------------
E|--------------------------------------------------------------------

E|-----------------------------------------------
B|--3--3--3--5--0-----0--------0--------0--------
G|-----------------2--------0-----0-----------0--
D|-----------------------0-----------0-----0-----
A|-----------------------------------------------
E|--------------------3-----------------3--------

E|--------------------------------------------------------------------------------------------------------------
B|--0--------0--------0--------0--------0--------1-----1--0-----0--------------------0-----------1--0-----------
G|-----2--0--------0-----0-----------0-----2--0-----0--------0------2r0--------------------------------2--------
D|--------------2-----------2-----2-----------------------------------------0--------0--------0--------0--------
A|-----------------------------------------------3--------------------------------------------------------------
E|-----------0-----------------0--------------------------------------------------------------------------------

E|--------------------------------------------------------------------------
B|-----------0--------0--------0--------0--------0--------0--------0--------
G|--4--2--0--------0-----0-----------0-----2--0--------0-----0-----------0--
D|--------------0-----------0-----0-----------------2-----------2-----2-----
A|--------------------------------------------------------------------------
E|-----------3-----------------3-----------------0-----------------0--------

E|-----------------------------------------------------------------
B|--0--------1--------0-----0--------------------------------------
G|-----2--0--------0------------2r0------------0/2-----------------
D|--------------2--------2--------------0--------------------------
A|-----------3-----------------------------------------------------
E|-----------------------------------------------------------------

E|--------------------------------------3-----2--0-----2--------------------------------------
B|---1/3-----0-----------------0--------------------------0--------0--------3-----1--0--------
G|--------------2--0--0-----0--------0-----0--------------------0--------0-----2-----------2--
D|-----------------------2--------2--------------------------0--------0-----0-----------0-----
A|--------------------------------------3-----------3-----------------------------------------
E|--------------------0-----------------------------------3-----------------------------------

E|--------------------3-----2--0-----2--------------------------------------------------
B|-----------0-----0--------------------0--------0--------3--3--3--3-----5--0-----------
G|--0-----0-----0--------0--------------------0--------0-----------------------2--0-----
D|-----2-----------------------------------0--------0-----0--------0--0-----------------
A|--------------------3-----------3-----------------------------------------------------
E|--0-----------------------------------3-----------------------------------0--------0--

E|--------3-----2--0-----2--------------------------------------
B|--0--3--------------------0--------------0--3-----1--0-----1--
G|-----------0--------------------0--0--2--------2--------------
D|-----------------------------0--------------0-----------0-----
A|--------3-----------3-----------------------------------------
E|--------------------------3-----------------------------------

E|-----------------------------------------------------------------------------------------------------------------------0--------2-----------
B|--0-----------------1--------0--------0-----------------------------------------0--------0--------0--------0--------1-----1-----3-----------
G|--------0--2--0--2--------0-----0--2--------0--2--------2-----2--0-----------0--------0--------0--------0--------0-----------0--2-----------
D|-----0-----------------2-----------------0--------------0--0--------0--4--------------------------------------------------------0-----------
A|--------------------3--------------------------------------------------------------------------------5--------3-----------------------------
E|--0-----------------------------------3-----------------------------------3--------2--------0-----------------------------------------------

E|--------------------------------------------------------------------------
B|--0--3-----0--------0--------0--------------0--0--------------------------
G|--------0--------0-----0-----------0--0--2--------2--0--0-----0--0--------
D|--------------0-----------0-----0-----------------------------------------
A|--------------------------------------------------------------------------
E|-----------3-----------------3-----------------0--------0--0-----0--------

E|--------------------------------------------------------------------------
B|--------0--1-----1--0-----0-----------------0-----------0--------3--------
G|--0--2--------0--------------2--0-----0--2-----2-----2--------2-----------
D|-----------------------------------------------0--0--------0--------------
A|-----------3-----------3--------------------------------------------------
E|--------------------------------------------------------------------------

E|--------------------------------------------------------------------------------
B|---3/5--0-----0--------0--------0--------0--0--3--3-----1--0-----0--------------
G|-----------2--------0-----0-----------0-----------------------------2--0--------
D|-----------------0-----------0-----0-----------------0--------0-----------0-----
A|--------------------------------------------------------------------------------
E|--------------3-----------------3-----------------0-----------------------------

E|-----------------------------------------------------------------
B|--------0--1--------1--3--1--0-----------------------------------
G|--0--2-----------0--------------0--------0--2--2-----------------
D|--------------2-----------------------2--------0-----0--0-----0--
A|-----------3-----------------3-----3-----------------------------
E|-----------------------------------------------------------------

E|-----------------------------------------------
B|--3--3--3--5--0-----0--------0--------0--------
G|-----------------2--------0-----0-----------0--
D|-----------------------0-----------0-----0-----
A|-----------------------------------------------
E|--------------------3-----------------3--------

E|--------------------------------------
B|--0--------0--------0--------0--------
G|-----2--0--------0-----0--------0-----
D|--------------2-----------2--------2--
A|--------------------------------------
E|-----------0-----------------0--------

E|-----------------------------------------------------------------------------------
B|--0--------1--------0--------------------------0-----------1--0--------------------
G|-----2--0--------0------2\0--0-----------------------0-----------2-----------------
D|--------------2-----------------------0-----------0-----0--------0-----0--0--------
A|-----------3-----------------------------------------------------------------------
E|-----------------------------------------------3-----------------------------------

E|-----------------------------------------------------------------------------------
B|--0--------0--------0--------0--------0--------0--------0--------0--------0--------
G|-----2--0--------0-----0-----------0-----2--0--------0-----0-----------0-----2--0--
D|--------------0-----------0-----0-----------------2-----------2-----2--------------
A|-----------------------------------------------------------------------------------
E|-----------3-----------------3-----------------0-----------------0-----------------

E|--------------------------------------------------------
B|--1--------0-----0--------------------------------------
G|--------0------------2\0-----------0--2-----------------
D|-----2--------2-----------------0-----0-----0--0--------
A|--3-----------------------------------------------------
E|--------------------------------------------------------

E|-----------0--------------------------3-----2--0-----2--------------------------------------
B|---1/3--------0--------------0-----0--------------------0--------0--------3-----1--0--------
G|-----------------2--0-----0-----0-----------------------------0-----0--------2-----------2--
D|-----------------------2-----------------2-----------------0-----------0--0-----------0-----
A|--------------------------------------3-----------3-----------------------------------------
E|--------------------0-----------------------------------3-----------------------------------

E|--------------------3-----2--0-----2--------------------------------------------
B|-----------0-----0--------------------0--------0--------3--3--3--3-----5--0-----
G|--0-----0-----0--------0--------------------0-----0--------------------------2--
D|-----2-----------------------------------0-----------0--0--------0--0-----------
A|--------------------3-----------3-----------------------------------------------
E|--0-----------------------------------3-----------------------------------0-----

E|--------------3-----2--0-----2-----------------------------------------------------------------------
B|--------0--3--------------------0--------------0--3-----1--0-----1--0-----------------1--------0-----
G|--0--------------0--------------------0--0--2--------2--------------------0--2-----0--------0--------
D|-----------------------------------0--------------0-----------0--------2--------2--------2-----------
A|--------------3-----------3-----------------------------------------------------------3--------------
E|-----0--------------------------3-----------------------------------0--------------------------------

E|--------------------------------------------
B|-----0--------------------------------------
G|--2--------0--2--------2-----2--0--------0--
D|--------0--------------0--0-----------4-----
A|--------------------------------------------
E|-----3-----------------------------------3--

E|--------------------------------------------------------------------------------------------------------------------------------------------------
B|--------------------------------------------------------------------------------------------------------------------------------------------------
G|--------------------------------------------------------------------------------------------------------------------------------------------------
D|--------6---8/10----------------10p-8\6---8p-6h-8p6--------------6---8/10-----------------8p6--8---8/11--------------8p6-----8--8-----------6--5--
A|---6h8------------------------------------------------------6h8-----------------------------------------------------------------------------------
E|--------------------------------------------------------------------------------------------------------------------------------------------------











Song lyrics here
Song lyrics here
E|--
B|--
G|--
D|--
A|--
E|--

Now supports capo and sound effects for vibrato/pull-off/hammer/bends etc !!! Checkout help section
tabs and chords, guitar tabs, music transcription, music technology, deep learning, music information retrieval, transcribe into tabs & chords, chordify, music renditions, songsterr, reverbnation, tabulature, bollywood chords, ultimate guitar, yousician, guitar lessons, acoustic guitar, electric guitar, guitar tuner, 911 tabs