Ukulele Tabs for Pentatonic Patterns 1

(/) Slide Up  (\) Slide Down  (h) Hammer On  (p) Pull Off  (b) Bend (r) Release (v) Vibrato (x) Muted

Pentatonic Patterns

A|--------------0--3--
E|--------0--3--------
C|--0--2--------------
G|--------------------

A|--------------3--5--
E|--------3--5--------
C|--2--4--------------
G|--------------------


A|--------------5--7--
E|--------5--8--------
C|--4--7--------------
G|--------------------


A|--------------7--10-
E|--------8--10-------
C|--7--9--------------
G|--------------------


A|--------------10-12-
E|--------10-12-------
C|--9--12-------------
G|--------------------


tabs and chords, guitar tabs, music transcription, music technology, deep learning, music information retrieval, transcribe into tabs & chords, chordify, music renditions, songsterr, reverbnation, tabulature, bollywood chords, ultimate guitar, yousician, guitar lessons, acoustic guitar, electric guitar, guitar tuner, 911 tabs