Guitar Tabs for Pehli Nazar Mein - Race Tabs

(/) Slide Up  (\) Slide Down  (h) Hammer On  (p) Pull Off  (b) Bend (r) Release (v) Vibrato (x) Muted

Tabs for Song : Pehli Nazar Mein

Pehli nazar mein Kaise jaado kar diya
E|--------------------------------------------------
B|--------------------------------------------------
G|---4/6--6-----------------------------------------
D|-----------7--9--9--7--6---7/9--7--7--6---6p7--4--
A|--------------------------------------------------
E|--------------------------------------------------

Tera ban baita hai Mera jiya
E|-----------------------------------
B|-----------7--5--------------------
G|---4/6--6--------4--4--6--4--------
D|-----------------------------7--7--
A|-----------------------------------
E|-----------------------------------

Jaane kya hoga Kya hoga kya pata
B|--------------------------------------------------
G|---4/6--6-----------------------------------------
D|-----------7--9--9--7--6---7/9--7--7--6---6p7--4--
A|--------------------------------------------------
E|--------------------------------------------------


Is pal ko milke Aa jee le zara
E|-----------------------------------
B|-----------7--5--------------------
G|---4/6--6--------4--4--6--4--------
D|-----------------------------7--7--
A|-----------------------------------
E|-----------------------------------

Mein hoon yahan Tu hai yahan Meri bahon mein aa Aa bhi ja
E|--------------------------------------------------------------------
B|--------------------------------------------------------------------
G|---7/9--7--6------7/9--7--6-----------------------------------------
D|--------------7--------------7--7--9---9/11-12-11-9--7--6---6p7--4--
A|--------------------------------------------------------------------
E|--------------------------------------------------------------------

O jaan-e-jaan Dono jahan
E|--------------------------------
B|--5---5/10-9--5---4/5-----------
G|-----------------------7--6-----
D|-----------------------------7--
A|--------------------------------
E|--------------------------------

Meri bahon mein aa Bhool Ja aa
E|-----------------------------------------
B|-----------------------------------------
G|-----4---4/6--7--6--4-----------4--6--4--
D|--7--------------------7--6--7-----------
A|-----------------------------------------
E|-----------------------------------------
tabs and chords, guitar tabs, music transcription, music technology, deep learning, music information retrieval, transcribe into tabs & chords, chordify, music renditions, songsterr, reverbnation, tabulature, bollywood chords, ultimate guitar, yousician, guitar lessons, acoustic guitar, electric guitar, guitar tuner, 911 tabs